Linkin Park - Burning In The Skies tab

Song: Burning In the Skies
Artist: Linkin Park
Album: A Thousand Suns

This is my first tab...I used Drop D tuning and it probably isn't the right tuning 
but it sounded good to me. 
Anyway great song!



|-----------------------------------------------------------------------|
|-----------------------------------------------------------------------|
|--14-14-14-14-14-14-14-14-14-14-14----7-7-7-7-7-7-7-7-7-7-7------------|
|---x--x--x--x--x--x--x--x--x--x--x----x-x-x-x-x-x-x-x-x-x-x------------|
|--12-12-12-12-12-12-12-12-12-12-12----9-9-9-9-9-9-9-9-9-9-9------------|
|-----------------------------------------------------------------------|

|---------------------------------------|-------------------|
|---------------------------------------|-------------------|
|--12-12-12-12-12-12-12-12-12-12-12-----|----11-11---7--7---|
|---x--x--x--x--x--x--x--x--x--x--x-----|----x--x----x--x---|
|--10-10-10-10-10-10-10-10-10-10-10-----|----9--9----5--5---|
|---------------------------------------|-------------------|

|------------------------------|
|------------------------------|
|--9-9-9-9-9-9-9-9-9-9---------|
|--x-x-x-x-x-x-x-x-x-x---------|
|--7-7-7-7-7-7-7-7-7-7---------|
|------------------------------|

|-----------------------------------------------------------------------|
|-----------------------------------------------------------------------|
|--12-12-12-12-12-12-12-12-12-12-12-15--12-12-12-12-12-12-12-12-12-15---|
|--x--x--x--x--x--x--x--x--x--x--x--x---x--x--x--x--x--x--x--x--x--x----|
|--10-10-10-10-10-10-10-10-10-10-10-13--10-10-10-10-10-10-10-10-10-13---|
|-----------------------------------------------------------------------|

|--------------------|
|--------------------|
|--11--11---7--7-----|
|---x---x---x--x-----|
|---9---9---5--5-----|
|--------------------|

|------------------------------------------|
|------------------------------------------|
|--14-14-14-14--12-12-12-12-12-------------|
|--x--x--x--x---12-12-12-12-12-------------| (x4)
|--12-12-12-12---0--0--0--0--0-------------|
|------------------------------------------|

|-----------------------------------------------------------------------|
|-----------------------------------------------------------------------|
|--14-14-14-14--16-16-16-16--17-17-17-17--19-19-19-19-------------------|
|--x--x--x--x---x--x--x--x---x--x--x--x---x--x--x--x--------------------|
|--12-12-12-12--14-14-14-14--15-15-15-15--17-17-17-17-------------------|
|-----------------------------------------------------------------------|

|-----------------------------------------------------------------------|
|-----------------------------------------------------------------------|
|--14-14-14-14--16-16-16-16--17-17-17-17--19-19-19-19---21--------------|
|--x--x--x--x---x--x--x--x---x--x--x--x---x--x--x--x----x~--------------|
|--12-12-12-12--14-14-14-14--15-15-15-15--17-17-17-17---19--------------|
|-----------------------------------------------------------------------|
Tap to rate this tab
 
# A B C D E F G H I J K L M N O P Q R S T U V W X Y Z