Linkin Park - Enth E Nd-s1 tab

---------------------------------------------------|
---------------------------------------------------|
-------4-4-----------------------------------------|
--2----------5---4--5--4--5---4--4-----------------|
---------------------------------------------------|
---------------------------------------------------|


---------------------------------------------------|
-------4-4--4----------------------------4---------|
--2----------0h5---4--4h5-4-4h5-4-4h5-4------------|
---------------------------------------------------|
---------------------------------------------------|
---------------------------------------------------|

Get the speed by listening! Hammer-on's on the 2nd part go really fast!

Artist: Linkin Park
Album:  Reanimation
Song:   Enth E ND-S1

This is my first tab i have ever made so please excuse me for any mistakes;)
Tap to rate this tab
 
# A B C D E F G H I J K L M N O P Q R S T U V W X Y Z