Linkin Park - Burning In The Skies tab

                           Linkin Park
	              Burning in the Skies 


by: Daniel                                Tuning: Standard

sehr schönes lied !

  Am                   C                   G
e|0-------------------|0----------1--------|3-------------------|
H|1-1--1--0-----0-----|1-1--1--3-----3-1---|0-0--0--------------|
G|2----------2----2---|0-------------------|0-------2--0--2-0---|
D|2-------------------|2-------------------|0-------------------|
A|0-0--0--0--0--0-0---|3-3--3--3--3--3-3---|2-------------------|
E|0-------------------|0-------------------|3-3--3--3--3--3-3---|

  D
e|--------------------|
H|--------------------|
G|--------0--1--0-1---|
D|--4--4--0--0--0-0---|
A|--5--5--------------|
E|--------------------|
Tap to rate this tab
 
# A B C D E F G H I J K L M N O P Q R S T U V W X Y Z