Linkin Park - Pushes Me Away tab

Band LINKIN PARK
song Pushing Me Away
tabbed by Audun

                         ****INTRO****

 Eb |--12-------------|--15--14--12------|-----10---------|-------15--14------|
 Bb |-----15--12------|-------------12---|--10-----12-----|---------------15--|
 Gb |-------------9---|------------------|-------------9--|---12--------------| 
 Db |-----------------|------------------|----------------|-------------------|
 Ab |-----------------|------------------|----------------|-------------------|
 Db |-----------------|------------------|----------------|-------------------| 


                   ***INTRO PART 2****

 Eb |-----------------------------------------------------| 
 Bb |-----------------------------------------------------|
 Gb |-----------5-5-5-5-----------------------------------| 
 Db |--2-2-2-2--5-5-5-5---5-5-5-5---7-7-7-7---9-9-9-9--0--|
 Ab |--2-2-2-2--3-3-3-3---5-5-5-5---7-7-7-7---9-9-9-9--0--| 
 Db |--2-2-2-2------------5-5-5-5---7-7-7-7---9-9-9-9--0--|    


                             ***VERSE***

 Eb |--12-------------|--15--14--12------|-----10---------|-------15--14------|
 Bb |-----15--12------|-------------12---|--10-----12-----|---------------15--|
 Gb |-------------9---|------------------|-------------9--|---12--------------| 
 Db |-----------------|------------------|----------------|-------------------|
 Ab |-----------------|------------------|----------------|-------------------|
 Db |-----------------|------------------|----------------|-------------------| 

            [1]   I've lied........To you 
                  The same way that I always do 
                  This is..........The last smile 
                  That I'll fake for the sake of being with you 

      (Everything falls apart, even the people who never frown eventually break down) 
                  The sacrifice of hiding in a lie 
      (Everything has to end, you'll soon find we're out of time left to watch it all unwind) 
                  The sacrifice is never knowing 

           [2]    I've tried like you 
                  To do everything you wanted too 
                  This is the last time
                  I'll take the blame for the sake of being with you
 ____________________________________________________________________  
|                        ***CHORUS***                                |
|                                                                    |
|   Eb |-----------------------------------------------------|       |
|   Bb |-----------------------------------------------------|       |
|   Gb |-----------5-5-5-5-----------------------------------|       |
|   Db |--2-2-2-2--5-5-5-5---5-5-5-5---7-7-7-7---9-9-9-9--0--|       |
|   Ab |--2-2-2-2--3-3-3-3---5-5-5-5---7-7-7-7---9-9-9-9--0--|       |
|   Db |--2-2-2-2------------5-5-5-5---7-7-7-7---9-9-9-9--0--|       | 
|                                                                    |
|                                                                    |
|          Why I never walked away                                   |
|          Why I played myself this way                              |
|          Now I see your testing me pushes me away                  |
|          Why I never walked away                                   |
|          Why I played myself this way                              |
|          Now I see your testing me pushes me away                  |
|____________________________________________________________________|


             ****BRIDGE****

     Eb |-----------------------------------------------------| 
     Bb |-----------------------------------------------------|
     Gb |--5-5-5-5---7-7-7-7----------------------------------| 
     Db |--5-5-5-5---7-7-7-7--7-7-7-7-7-7-----4-4-4-4--5-5----|
     Ab |--3-3-3-3---5-5-5-5--7-7-7-7-7-7-----4-4-4-4--5-5----| 
     Db |---------------------7-7-7-7-7-7-----4-4-4-4--5-5----|    
Tap to rate this tab
 
# A B C D E F G H I J K L M N O P Q R S T U V W X Y Z