Song name
# A B C D E F G H I J K L M N O P Q R S T U V W X Y Z

Linkin Park - Leave Out All The Rest tab

Intro And Verse Are This:

Guitar 1
e|-------------------------12---12----12----12----12----12----12----12---|
B|-13----13----13----13------------------------------13----13----13----13|
G|----14----14----14----14---14----14----14----14------------------------|
D|-----------------------------------------------------------------------|
A|-----------------------------------------------------------------------|
E|-----------------------------------------------------------------------|

e|---------------------------------------------------------------|
B|-15----15----15----15------------------------------------------|
G|----14----14----14----14---------------------------------------|
D|---------------------------------------------------------------|
A|---------------------------------------------------------------|
E|---------------------------------------------------------------|

Pre Chorus
Guitar 1
e|-------------------------12------------------------------------|
B|-13----13----13----13------------------------------------------|
G|----14----14----14----14---------------------------------------|
D|---------------------------------------------------------------|
A|---------------------------------------------------------------|
E|---------------------------------------------------------------|


Chorus

Guitar 1

e|-------------------------------------|
B|-------------------------------------|
G|----------5~~~~~~--3~~~~~~--5~~~~~~--|
D|-7~~~~~~--5~~~~~~--3~~~~~~--5~~~~~~--| x2
A|-7~~~~~~--3~~~~~~--1~~~~~~--7~~~~~~--|
E|-5-----------------------------------|

Here comes the verse again
Chorus
Bridge:

e|-----------------------------------------------------|
B|-----------------------------------------------------|
G|----------5~~~~~~-----------5~~~~~~~----------7~~~~~~|
D|-7~~~~~~--5~~~~~~--7~~~~~~--5~~~~~~--7~~~~~~--7~~~~~~|
A|-7~~~~~~--3~~~~~~--7~~~~~~--3~~~~~~--7~~~~~~--5~~~~~~|
E|-5-----------------5-----------------5~~~~~~---------|

Final Chorus

e|-----------------------------------------|
B|-----------------------------------------|
G|----------5~~~~~~~-------------7~~~~~~~--|
D|-7~~~~~~--5~~~~~~~--3~~~~~~~~--7~~~~~~~--| x2
A|-7~~~~~~--3~~~~~~~--3~~~~~~~~--5~~~~~~~--|
E|-5~~~~~~------------1~~~~~~~~------------|

I think that it's  right,so enjoy it !
Tap to rate this tab
 
# A B C D E F G H I J K L M N O P Q R S T U V W X Y Z