Song name
# A B C D E F G H I J K L M N O P Q R S T U V W X Y Z

Linkin Park - The Down Syndrome tab

These tabs are the intro and the main riffs, the distorted guitar in the chorus is the 
only thing excluded. These two tabs are played throughout the whole song:

 |-------------------|
 |-------------------|
 |-------------------|
 |---5-2-5-2-----4---|
 |-------------5-----|
 |-0---------0-------|

then after ever fourth or second time this plays

 |---------------------------|
 |---------------------------|
 |-------------------0-------|
 |---------------4-----4---5-|
 |---5-2-5-2---5---5-----5---|
 |-0---------0---------------|
Tap to rate this tab
 
# A B C D E F G H I J K L M N O P Q R S T U V W X Y Z