Guitaretab - guitar tabs
Song name
# A B C D E F G H I J K L M N O P Q R S T U V W X Y Z

Linkin Park - Hybrid Theory Ep tab

Yeah,this album is rare. only hard core LP fans has this,and downloaders .Its 95% Correct.
few errors,few and there but hey,its close enuff. Hehe my second LP album I've tabbed,
anyways enjoy!

 And One
 Carousel
 High Voltage
 Part Of Me
 Step Up

  

"~" = vibrato
"/" = slide up
"\" = slide down
"^" = bend
"h" = hammer on
"p" = pull off
"(x)" = natural harmonic
"*" = natural harmonic

And One


A ^ under tab means palm mute.
Tuning: D-A-D-G-B-E
"Where should I start?"
E---------------------------------------------------------
B---------------------------------------------------------
G-------------------------13------------------------------
D-----------------------------------------------------11--
A--4-4-4--4--7-7-7--7-7--------4-4-4--4--7-7-7--7-7-------
D--6-6-6--6--7-7-7--7-7--------6-6-6--6--7-7-7--7-7-------
   ^ ^ ^  ^  ^ ^ ^  ^ ^        ^ ^ ^  ^  ^ ^ ^  ^ ^
Around "If anger's a gift...", the 'possible harmonics' go like this:
E-----|----|-----
B-----|----|-----
G--13-|-11-|-----
D-----|----|-11--
A-----|----|-----
D-----|----|-----
"Keep it locked up inside..."
E-----------------------
B-----------------------
G-----------------------
D--------7-----2-----0--
A--4-----7-----2-----0--
D--6-----7-----2-----0--
When it slows down:    "It's too late..."
E-------------------------|-----------------------------
B-------------------------|-----------------------------
G--9-8---6----------------|--9-8h9h8---6----------------
D----------9--------------|--------------9--------------
A--------------7-9---6-7--|------------------7-9---6-9--
D-------------------------|-----------------------------
Gtr 2. during 'softer' "Breaking a part of my heart..." section:
E--------------------------------
B----------------14--------------
G--13------13--------13--11------
D------11--------------------11--
A--------------------------------
D--------------------------------
During 'harder' "Breaking a part of my heart..." and "Keep my distance" section:
E-------------------|----------------------------|-----
B-------------------|----------------------------|-----
G-------------------|----------------------------|-----
D---------2--/--11--|-------------------------9--|-----
A--4-4-4--2--/--11--|--4----4-4-4--2-2-2-2-2-----|--8--
D--6-6-6--2--/--11--|--6----6-6-6--2-2-2-2-2-----|-----
   ^ ^ ^    ^ ^ ^  ^ ^ ^ ^ ^
+ + + + + + + + + + + + + + + + + + + + + + + + + + + + + + + + + + + +
Tuning: C#-G#-C#-F#-Bb-Eb
"Where should I start?"
Eb---------------------------------------------------------
Bb---------------------------------------------------------
F#-------------------------14------------------------------
C#-----------------------------------------------------12--
G#--0-0-0--0--8-8-8--8-8--------0-0-0--0--8-8-8--8-8-------
C#--0-0-0--0--8-8-8--8-8--------0-0-0--0--8-8-8--8-8-------
    ^ ^ ^  ^  ^ ^ ^  ^ ^^ ^ ^  ^  ^ ^ ^  ^ ^
Around "If anger's a gift...", the higher notes go like this:
Eb-----|----|-----
Bb-----|----|-----
F#--14-|-12-|-----
C#-----|----|-12--
G#-----|----|-----
C#-----|----|-----
"Keep it locked up inside..."
Eb-----------------------
Bb-----------------------
F#-----------------------
C#--0-----8-----3-----1--
G#--0-----8-----3-----1--
C#--0-----8-----3-----1--
When it slows down (1st time):  Rest of time:
Eb----------------------------|----------------------------------
Bb----------------------------|----------------------------------
F#--10-9---7------------------|--10-9h10h9---7-------------------
C#-----------10---------------|----------------10----------------
G#----------------8-10---7-8--|---------------------8-10---7-10--
C#----------------------------|----------------------------------
Gtr 2. during 'softer' "Breaking a part of my heart..." section:
Eb--------------------------------
Bb----------------15--------------
F#--14------14--------14--12------
C#------12--------------------12--
G#--------------------------------
C#--------------------------------
During 'harder' "Breaking a part of my heart..." and "Keep my distance" section:
Eb-------------------|-----------------------------|-----
Bb-------------------|-----------------------------|-----
F#-------------------|-----------------------------|-----
C#---------3--/--12--|--0----------------------10--|-----
G#--0-0-0--3--/--12--|--0----0-0-0--3-3-3-3-3------|--9--
C#--0-0-0--3--/--12--|--0----0-0-0--3-3-3-3-3------|-----
    ^ ^ ^     ^ ^ ^  ^ ^ ^ ^ ^
+ + + + + + + + + + + + + + + + + + + + + + + + + + + + + + + + + + + +
Tuning: Standard
"Where should I start?"
E---------------------------------------------------------
B---------------------------------------------------------
G-------------------------13------------------------------
D-----------------------------------------------------11--
A--4-4-4--4--7-7-7--7-7--------4-4-4--4--7-7-7--7-7-------
E--4-4-4--4--5-5-5--5-5--------4-4-4--4--5-5-5--5-5-------
   ^ ^ ^  ^  ^ ^ ^  ^ ^        ^ ^ ^  ^  ^ ^ ^  ^ ^
Around "If anger's a gift...", the 'possible harmonics' go like this:
E-----|----|-----
B-----|----|-----
G--13-|-11-|-----
D-----|----|-11--
A-----|----|-----
E-----|----|-----
"Keep it locked up inside..."
E-----------------------
B-----------------------
G-----------------------
D--------7-----2--------
A--4-----7-----2-----5--
E--4-----5-----0-----5--
When it slows down:    "It's too late..."
E-------------------------|-----------------------------
B-------------------------|-----------------------------
G--9-8---6----------------|--9-8h9h8---6----------------
D----------9--------------|--------------9--------------
A--------------7-9---6-7--|------------------7-9---6-9--
E-------------------------|-----------------------------
Gtr 2. during 'softer' "Breaking a part of my heart..." section:
E--------------------------------
B----------------14--------------
G--13------13--------13--11------
D------11--------------------11--
A--------------------------------
E--------------------------------
During 'harder' "Breaking a part of my heart..." and "Keep my distance" section:
E-------------------|----------------------------|-----
B-------------------|----------------------------|-----
G-------------------|----------------------------|-----
D---------2--/--11--|-------------------------9--|-----
A--4-4-4--2--/--11--|--4----4-4-4--2-2-2-2-2-----|--8--
E--4-4-4--0--/--9---|--4----4-4-4--0-0-0-0-0-----|-----
   ^ ^ ^    ^ ^ ^  ^ ^ ^ ^ ^

Carousel


Intro (Flanger)
-------------------
-------------------
----9--------------
------9------------
--7-----7-8-8-8-7--
-------------------
Chorus
-----------------------------------------------------
-----------------------------------------------------
-----------------------------------------------------
--2-2-2--2-----3-3-3--3-----2-2-2--2-----3-3-3--3--
--2-2-2--2-----3-3-3--3-----2-2-2--2-----3-3-3--3--
--2-2-2--2-----3-3-3--3-----2-2-2--2-----3-3-3--3--
. . . . . . . . . . . . . . . .
Bridge
-----------------------------------------------
-----------------------------------------------
-----------------------------------------------
--2-2-2--2---2-2-2--2---2-2-2--2---2-2-2--2--
--2-2-2--2---2-2-2--2---2-2-2--2---2-2-2--2--
--2-2-2--2---2-2-2--2---2-2-2--2---2-2-2--2--
. . . . . . . . . . . . . . . .
End on...
------------
------------
------------
--2-2-2--2--
--2-2-2--2--
--2-2-2--2--
. . . .


High Voltage


Tuning: Dropped D one half step down
C# G# C# F# A# D#
   [Intro] Whole song is clean guitar
-|--------------------------------------------------------------------------|-
-|--------------------------------------------------------------------------|-
-|--------------------------------------------------------------------------|-
-|--3-3--6--5--4--3---------------------------------------------------------|-
-|--------------------------------------------------------------------------|-
-|--------------------------------------------------------------------------|-
    Play 6 times
   [Verse]
-|--------------------------------------------------------------------------|-
-|--------------------------------------------------------------------------|-
-|--------------------------------------------------------------------------|-
-|--3-3-----1--4--1---------------------------------------------------------|-
-|-------4------------------------------------------------------------------|-
-|--------------------------------------------------------------------------|-
    Play 8 times
   [Chorus]
-|--------------------------------------------------------------------------|-
-|--------------------------------------------------------------------------|-
-|--------------------------------------------------------------------------|-
-|--3-3--6--5--4--3---------------------------------------------------------|-
-|--------------------------------------------------------------------------|-
-|--------------------------------------------------------------------------|-
    Play twice.
   [Verse]
-|--------------------------------|-----------------------------------------|-
-|--------------------------------|-----------------------------------------|-
-|--------------------------------|-----------------------------------------|-
-|--3-3-----1--4--1--3-3-----1--4-|--3-3-----1--4--1------------------------|-
-|-------4----------------4-------|-------4---------------------------------|-
-|--------------------------------|-----------------------------------------|-
                                     Play 6 times.
   [Chorus]
-|--------------------------------------------------------------------------|-
-|--------------------------------------------------------------------------|-
-|--------------------------------------------------------------------------|-
-|--3-3--6--5--4--3---------------------------------------------------------|-
-|--------------------------------------------------------------------------|-
-|--------------------------------------------------------------------------|-
    Play 4 times.
   [Chorus]
-|--------------------------------------------------------------------------|-
-|--------------------------------------------------------------------------|-
-|--------------------------------------------------------------------------|-
-|--3-3--6--5--4--3---------------------------------------------------------|-
-|--------------------------------------------------------------------------|-
-|--------------------------------------------------------------------------|-
    Play 4 times.

Part of Me

[ Tab from: http://www.guitaretab.com/l/linkin-park/29626.html ]
A ^ under tab means palm mute.
Tuning: D-A-D-G-B-E
E----------------------------------
B----------------------------------
G----------------------------------
D----------------------------------
A------------7-7-------7-7-7-7--7--
D--6-6--6-6-------6-6--------------
   ^ ^  ^ ^  ^ ^  ^ ^  ^ ^ ^ ^  ^
"Part of me won't go away..."
E---------------------------------------------------------------------
B---------------------------------------------------------------------
G---------------------------------------------------------------------
D--6---6---6---6---9---9---4---4-----6---6---6---6---8---8---4---4----
A----6---6---6---6---7---7---4---4-----6---6---6---6---6---6---4---4--
D---------------------------------------------------------------------
"Cut myself free willingly..."
E-------------------------------------------
B-------------------------------------------
G-------------------------------------------
D--2--1----2--1----2--1----2--1--x-x--2--4--
A--2--1----2--1----2--1----2--1--x-x--2--4--
D--2--1----2--1----2--1----2--1--x-x--2--4--
"I feel it everyday..."
E------------------------------------------------------------------------------
B------------------------------------------------------------------------------
G-------------9-9---------9-9-9-9--9-------------11-11---------11-11-11-11-11--
D--6-6--6-6---9-9---6-6---9-9-9-9--9--6-6--6-6---11-11---6-6---11-11-11-11-11--
A--6-6--6-6---7-7---6-6---7-7-7-7--7--6-6--6-6---9--9----6-6---9--9--9--9--9---
D--6-6--6-6---------6-6---------------6-6--6-6-----------6-6-------------------
"Alive of me, inside of me..."
E-------------------------------------------------
B-------------------------------------------------
G--8-8--8-8--9-8-------8--8-8--8-8--8-8--8-8--11--
D--8-8--8-8--9-8---9-8-8--8-8--8-8--8-8--8-8--11--
A--6-6--6-6--7-6---9-8-6--7-7--7-7--7-7--7-7--9---
D------------------9-8----------------------------
+ + + + + + + + + + + + + + + + + + + + + + + + + + + + + + + + + + + +
Tuning: C#-G#-C#-F#-Bb-Eb
Eb----------------------------------
Bb----------------------------------
F#----------------------------------
C#----------------------------------
G#------------8-8-------8-8-8-8--8--
C#--7-7--7-7-------7-7--------------
    ^ ^  ^ ^  ^ ^  ^ ^  ^ ^ ^ ^  ^
"Part of me won't go away..."
Eb-----------------------------------------------------------------------
Bb-----------------------------------------------------------------------
F#-----------------------------------------------------------------------
C#--7---7---7---7---10---10---5---5-----7---7---7---7---9---9---5---5----
G#----7---7---7---7----8----8---5---5-----7---7---7---7---7---7---5---5--
C#-----------------------------------------------------------------------
"Cut myself free willingly..."
Eb-------------------------------------------
Bb-------------------------------------------
F#-------------------------------------------
C#--3--2----3--2----3--2----3--2--x-x--3--5--
G#--3--2----3--2----3--2----3--2--x-x--3--5--
C#--3--2----3--2----3--2----3--2--x-x--3--5--
"I feel it everyday..."
Eb--------------------------------------------------------------------------------------
Bb--------------------------------------------------------------------------------------
F#-------------10-10---------10-10-10-10--10-------------12-12---------12-12-12-12--12--
C#--7-7--7-7---10-10---7-7---10-10-10-10--10--7-7--7-7---12-12---7-7---12-12-12-12--12--
G#--7-7--7-7---8--8----7-7---8-8-8-8--8---8---7-7--7-7---10-10---7-7---10-10-10-10--10--
C#--7-7--7-7-----------7-7--------------------7-7--7-7-----------7-7--------------------
"Alive of me, inside of me..."
Eb-----------------------------------------------------------
Bb-----------------------------------------------------------
F#--9-9--9-9--10-9--------9--10-10--10-10--10-10--10-10--12--
C#--9-9--9-9--10-9---10-9-9--10-10--10-10--10-10--10-10--12--
G#--7-7--7-7--8--7---10-9-7--8--8---8--8---8--8---8--8---10--
C#-------------------10-9------------------------------------
+ + + + + + + + + + + + + + + + + + + + + + + + + + + + + + + + + + + +
Tuning: Standard
E----------------------------------
B----------------------------------
G----------------------------------
D----------------------------------
A------------7-7-------7-7-7-7--7--
E--4-4--4-4-------4-4--------------
   ^ ^  ^ ^  ^ ^  ^ ^  ^ ^ ^ ^  ^
"Part of me won't go away..."
E---------------------------------------------------------------------
B---------------------------------------------------------------------
G---------------------------------------------------------------------
D--6---6---6---6---9---9---4---4-----6---6---6---6---8---8---4---4----
A----6---6---6---6---7---7---4---4-----6---6---6---6---6---6---4---4--
E---------------------------------------------------------------------
"Cut myself free willingly..."
E-------------------------------------------
B-------------------------------------------
G-------------------------------------------
D--------------------------------x-x--2--4--
A--7--6----7--6----7--6----7--6--x-x--2--4--
E--7--6----7--6----7--6----7--6--x-x--0--2--
"I feel it everyday..."
E------------------------------------------------------------------------------
B------------------------------------------------------------------------------
G-------------9-9---------9-9-9-9--9-------------11-11---------11-11-11-11-11--
D--6-6--6-6---9-9---6-6---9-9-9-9--9--6-6--6-6---11-11---6-6---11-11-11-11-11--
A--6-6--6-6---7-7---6-6---7-7-7-7--7--6-6--6-6---9--9----6-6---9--9--9--9--9---
E--4-4--4-4---------4-4---------------4-4--4-4-----------4-4-------------------
"Alive of me, inside of me..."
E-------------------------------------------------
B-------------------------------------------------
G--8-8--8-8--9-8-------8--8-8--8-8--8-8--8-8--11--
D--8-8--8-8--9-8---9-8-8--8-8--8-8--8-8--8-8--11--
A--6-6--6-6--7-6---9-8-6--7-7--7-7--7-7--7-7--9---
E------------------7-6----------------------------

Step Up


A ^ under tab means palm mute.
Tuning: D-A-D-G-B-E
E---------------------------------------------
B--9-9-9--7--9--------------------------------
G---------------9--6-6--9--8-8----------------
D--------------------------------8-9--6-/-13--
A---------------------------------------------
D---------------------------------------------
E--------------------------------------------
B--------------------------------------------
G--------------------------------------------
D--6-7-/-14-13-----6-7-/-13-----6-7-/-14-13--
A--------------------------------------------
D--------------------------------------------
"Using the waves of sound..."
E---------------------------------
B---------------------------------
G---------------------------------
D--6-6--6--6-6--6--7-7-7--7-7--9--
A--6-6--6--6-6--6--7-7-7--7-7--9--
D--6-6--6--6-6--6--7-7-7--7-7--9--
"Who can rock a rhyme like this..."
E------------------------------------------------------
B------------------------------------------------------
G-----9-9--8-8---6---------------9-9--8-8--------------
D--6--9-9--8-8---6--4-4-4-----6--9-9--8-8----7--9-9-9--
A--6--7-7--6-6---4--4-4-4-----6--7-7--6-6----7--9-9-9--
D--6----------------4-4-4-----6--------------7--9-9-9--
When drums stop:
E-----------------------------------------
B-----------------------------------------
G-----------------------------------------
D--------6-----4--------------6-----4-----
A-----6-----6-----6--------6-----6-----6--
D--6--------------------7-----------------
When Chester starts humming:
E--------------------------------
B--------------------------------
G--------------------------------
D-----------6--7--6-----6--7--6--
A--6-----6-----------6-----------
D-----6--------------------------
+ + + + + + + + + + + + + + + + + + + + + + + + + + + + + + + + + + + +
Tuning: C#-G#-C#-F#-Bb-Eb
Eb--------------------------------------------------
Bb--10-10-10--8--10---------------------------------
F#------------------10--7-7--10--9-9----------------
C#------------------------------------9-10--7-/-14--
G#--------------------------------------------------
C#--------------------------------------------------
Eb-----------------------------------------------
Bb-----------------------------------------------
F#-----------------------------------------------
C#--9-10-/-15-14-----9-10-/-14-----9-10-/-15-14--
G#-----------------------------------------------
C#-----------------------------------------------
"Using the waves of sound..."
Eb----------------------------------
Bb----------------------------------
F#----------------------------------
C#--7-7--7--7-7--7--8-8-8--8-8--10--
G#--7-7--7--7-7--7--8-8-8--8-8--10--
C#--7-7--7--7-7--7--8-8-8--8-8--10--
"Who can rock a rhyme like this..."
Eb-------------------------------------------------------------
Bb-------------------------------------------------------------
F#-----10-10--9-9---7---------------10-10--9-9-----------------
C#--7--10-10--9-9---7--5-5-5-----7--10-10--9-9----8--10-10-10--
G#--7--8--8---7-7---5--5-5-5-----7--8--8---7-7----8--10-10-10--
C#--7------------------5-5-5-----7----------------8--10-10-10--
When drums stop:
Eb-----------------------------------------
Bb-----------------------------------------
F#-----------------------------------------
C#--------7-----5--------------7-----5-----
G#-----7-----7-----7--------7-----7-----7--
C#--7--------------------8-----------------
When Chester starts humming:
Eb--------------------------------
Bb--------------------------------
F#--------------------------------
C#-----------7--8--7-----7--8--7--
G#--7-----7-----------7-----------
C#-----7--------------------------
+ + + + + + + + + + + + + + + + + + + + + + + + + + + + + + + + + + + +
Tuning: Standard
E---------------------------------------------
B--9-9-9--7--9--------------------------------
G---------------9--6-6--9--8-8----------------
D--------------------------------8-9--6-/-13--
A---------------------------------------------
E---------------------------------------------
E--------------------------------------------
B--------------------------------------------
G--------------------------------------------
D--8-9-/-14-13-----8-9-/-13-----8-9-/-14-13--
A--------------------------------------------
E--------------------------------------------
"Using the waves of sound..."
E---------------------------------
B---------------------------------
G---------------------------------
D--6-6--6--6-6--6--7-7-7--7-7--9--
A--6-6--6--6-6--6--7-7-7--7-7--9--
E--4-4--4--4-4--4--5-5-5--5-5--7--
"Who can rock a rhyme like this..."
E------------------------------------------------------
B------------------------------------------------------
G-----9-9--8-8---6---------------9-9--8-8--------------
D--6--9-9--8-8---6--4-4-4-----6--9-9--8-8----7--9-9-9--
A--6--7-7--6-6---4--4-4-4-----6--7-7--6-6----7--9-9-9--
E--4----------------2-2-2-----4--------------5--7-7-7--
When drums stop:
E-----------------------------------------
B-----------------------------------------
G-----------------------------------------
D--------6-----4--------------6-----4-----
A-----6-----6-----6--------6-----6-----6--
E--4--------------------5-----------------
When Chester starts humming:
E--------------------------------
B--------------------------------
G--------------------------------
D-----------6--7--6-----6--7--6--
A--6-----6-----------6-----------
E-----4--------------------------
Related for Hybrid Theory Ep tab