Guitaretab - guitar tabs
Song name
# A B C D E F G H I J K L M N O P Q R S T U V W X Y Z

Linkin Park - High Voltage Remix tab

Title:High Voltage(Remix)
By:Linkin Park


Piano background.

---------9------------------------
-9-12-11---12-11-9-8-9------------
----------------------------------
----------------------------------
----------------------------------
----------------------------------

When Mike Shinoda says:"I've been diggin"
Play:
----
----
----   let ring
-6--
-6--
-6--

when guitar part starts during the first verse:

--------------------------------------------
----16-14-16-17-17-16----16-14-16-----------
-13-------------------13----------16-16-15--
--------------------------------------------
--------------------------------------------
--------------------------------------------

chorus:::

----------------------------------
----------------------------------
----------------------------------
-6-66-6-6-------------------------
-6-66-6-6-------------------------
-6-66-6-6-------------------------

guitar in verse 2:(play this 2 times)
--------------------------------------------
----16-14-16-17-17-16----16-14-16-----------
-13-------------------13----------16-16-15--
--------------------------------------------
--------------------------------------------
--------------------------------------------

then:
----------------------------------------------------15----
----16----16--14--16----16-----16----16--14--16--17-------
-15----16------------16-----15----16----------------------
----------------------------------------------------------
----------------------------------------------------------
----------------------------------------------------------

Then the chorus again:

After chester sings: some times some times some times some times.
and when he is singing: sometimes i feel like a prophet misunderstood.....
play:
--------------------------
--------------------------
-12-12-12-12-12-12-12-----
-xx-xx-xx-xx-xx-xx-xx-----
-10-10-10-10-10-10-10-----
--------------------------
[ Tab from: http://www.guitaretab.com/l/linkin-park/29652.html ]
LYRICS:
You know what I mean
Try to put a label on a life
Put a label on a lifestyle (Sometimes)
You know, put a label on how you wake up every morning and go to bed at night (Alright) 
I've been diggin' in the crates / ever since I was living in space
Before the rat race / before monkeys had human traits
I mastered numerology and big bang theology
Performed lobotomies with telekinetic psychology
Invented the mic so I could start blessing it
Chin-checking kids to make my point like an impressionist
Many men have tried to shake us
But I twist mic cords into double helixes and show them what I'm made of
I buckle knees like leg braces
Cast a spell of instrumentalness on all of you emcees who hate us
So you can try on / leave you without a shoulder to cry on / from now to infinity / 
let icons be bygons
A firebomb / ghostly notes haunt this
I tried threats, but moved on to a promise
I stomp shit / with or without an accomplice and
Run the gauntlet with whoever that wants this 

High voltage
The unforgettable sound 

High voltage
Bringin' you up and taking you down 

High voltage
Comin' at you from every side 

High voltage
Making the rhythm and rhyme collide 

(Akira) I put a kink in the backbones of clones with microphones
And never satisfy my rhyme jonez
Spray in bright day over what you might say
My blood type's krylon / Technicolor type A
On highways, write with road rage
Pages of wind in cages of tin that bounce all around
Surround sound / devouring the scene
Subliminal gangrene paintings / over all the same thing
Sing-song karaoke copy bullshit
Break bones verbally with sticks-and-stone tactics
Fourth dimension combat convention
Write rhymes at ease while the track stands at attention
Meant to put you away / with a pencil pistol official
Sixteen-line / the rhyme missile
While you risk your all / I pick out all your flaws
Spittin' raw blah blah blah you can say you saw 

High voltage
The unforgettable sound 

High voltage
Bringin' you up and taking you down 

High voltage
Comin' at you from every side 

High voltage
Making the rhythm and rhyme collide 

High voltage
The unforgettable sound 

High voltage
Bringin' you up and taking you down 

High voltage
Comin' at you from every side 

High voltage
Making the rhythm and rhyme collide 

I like to rock and rap, you know what I mean?
People are acting like, you know, "wow thatís a new invention"
That shit thing, you know
We're constantly evolving
It is constantly changing (Sometimes)
There's a world of change
Everybody's always trying to put labels on it, there ain't no label for this shit
They always gotta try to put a label on it
Try to create something so they can water it down 

Sometimes I feel like a prophet / misunderstood
Under the gun like a new disease 

Sometimes I feel like a prophet / misunderstood
Under the gun like a new disease 

High voltage
The unforgettable sound 

High voltage
Bringin' you up and taking you down 

High voltage
Comin' at you from every side 

High voltage
Making the rhythm and rhyme collide 

(x3) 

You know what I mean? You can't put a label on a lifestyle.
Related for High Voltage Remix tab