Song name
# A B C D E F G H I J K L M N O P Q R S T U V W X Y Z

Linkin Park - System tab

Key

~  Let ring
/   Slide 


First Part
|--------------------------------------------------------------------------|
|--------------------------------------------------------------------------|
|--------------------------------------------------------------------------|
|---------7~----5~----8~--10/8/10/7~---------------------------------------|
|---------7~----5~----8~--10/8/10/7~---------------------------------------|
|---------5~----3~----6~---8/6-/8/5~---------------------------------------|


Second Part
|--------------------------------------------------------------------------|
|--------------------------------------------------------------------------|
|---2~----6--6/7---5-5---2~------------------------------------------------|
|---2~----6--6/7---5-5---2~------------------------------------------------|
|---0~----4--4/5---3-3---0~------------------------------------------------|
|---0~----4--4/5---3-3---0~------------------------------------------------|



I'm proud of dedicate this tab to Kity Anarė..
Tap to rate this tab
# A B C D E F G H I J K L M N O P Q R S T U V W X Y Z