Song name
# A B C D E F G H I J K L M N O P Q R S T U V W X Y Z

Linkin Park - Iridescent tab

-------------------------------------------------------------------------------
			     IRIDESCENT - Linkin Park
-------------------------------------------------------------------------------
Tabbed by: Promactabber
Email: procow97@gmail.com

Tuning: Standard

Solo:

e|--12--12--12--12--15------12------13------12------13------12---------------|
B|--13--13--13--13--13--13--13--13--13--13--13--13--13--13--13--13-----------|
G|---------------------------------------------------------------------------|
D|---------------------------------------------------------------------------|
A|---------------------------------------------------------------------------|
E|---------------------------------------------------------------------------|

e|---8---8---8---8---8---8---8---8---7---7---7---7---7---7---7---7-----------|
B|--10--10--10--10--10--10--10--10---8---8---8---8---8---8---8---8-----------|
G|---------------------------------------------------------------------------|
D|---------------------------------------------------------------------------|
A|---------------------------------------------------------------------------|
E|---------------------------------------------------------------------------|

Bridge & Chorus chords from after the solo:

e|---------------------------------------------------------------------------|
B|---------------------------------------------------------------------------|
G|--5--5--5--5--5--5--5--5--5--5--5--5--2--2--2--2---------------------------|
D|--5--5--5--5--5--5--5--5--5--5--5--5--3--3--3--3--7--7--7--7--7--7--7--7---|
A|--3--3--3--3--3--3--3--3--3--3--3--3--3--3--3--3--7--7--7--7--7--7--7--7---|
E|--------------------------------------1--1--1--1--5--5--5--5--5--5--5--5---|
    "Cold            and    lost    in   Desperation" etc.
                            
e|------------------------|
B|------------------------|
G|------------------------|
D|--7--7--7--7--5--5--5--5|
A|--7--7--7--7--5--5--5--5|
E|--5--5--5--5--3--3--3--3|
          "You  build  up all" etc.

Repeat until the end of the song then end with:

E|---------------------------------------------------------------------------|
B|---------------------------------------------------------------------------|
G|--2--2--2--2--2--2--2--2--2--2--2--2--2--2--2--2---------------------------|
D|--3--3--3--3--3--3--3--3--3--3--3--3--3--3--3--3--5--5--5--5--5--5--5--5---|
A|--3--3--3--3--3--3--3--3--3--3--3--3--3--3--3--3--5--5--5--5--5--5--5--5---|
E|--1--1--1--1--1--1--1--1--1--1--1--1--1--1--1--1--3--3--3--3--3--3--3--3---|
    go                                      oh  oh  oh 
E|-----------------------------||
B|-----------------------------||
G|-----------------------------||
D|--5--5--5--5--5--5--5--5--7--||
A|--5--5--5--5--5--5--5--5--7--||
E|--3--3--3--3--3--3--3--3--5--||
                Let    it   go


This is my first text style TAB so I don't know if I wrote it correctly
Please provide some feedback as to how I can improve my TAB writing

This TAB was completed in a rush and only has the parts where the guitars
play etc. Thanks for your support on my last tab

Promactabber

************************************

| /   slide up
| \   slide down
| h   hammer-on
| p   pull-off
| ~   vibrato
| +   harmonic
| x   Mute note
| b   Bend
| pb  Pre-bend
| br  Bend release
| pbr Pre-bend release
| brb Bend release bend

************************************
Tap to rate this tab
 
# A B C D E F G H I J K L M N O P Q R S T U V W X Y Z