Guitaretab - guitar tabs
Song name
# A B C D E F G H I J K L M N O P Q R S T U V W X Y Z

Linkin Park - Burn It Down tab

C'est une musique très simple et sympa à jouer :)
It's very simple musique and very fun :)

Drop D
Intro/Verse : (8sec)
E ----------------------------------------------------------------|
B ---6-8-13------8-10------15-13-10------13-12-8------------------|
G ----------------------------------------------------------------| x2
D ----------------------------------------------------------------|
A ----------------------------------------------------------------|
D ----------------------------------------------------------------|

Répéter ça : à 1m27 x1 ; et à partir de 3min12 jusqu'à la fin ou alors jouer le refrain ^^
Repeat : at 1m27 x1 and at 3min 12 if you want or play the chorus.

Refrain/Chorus :
[ Tab from: http://www.guitaretab.com/l/linkin-park/312760.html ]
E --------------------------------------------------|
B --------------------------------------------------|
G --------------------------------------------------|
D -00000002-3333333---777777779-5555555-------------|
A -00000002-3333333---777777779-5555555-------------|
D -00000002-3333333---777777779-5555555-------------|

Pour le pont y a une note dont je ne suis pas sûr mais je trouve que ça passe :)
Bridge : I'm not very sure but i like the bridge like this :)

E --------------------------------------------------------------|
B ----6--3------------------------------------------------------|
G ---------2----------5--7--------------------------------------|
D --------------------------5-----------------------------------| x2
A --------------------------------------------------------------|
D --------------------------------------------------------------|

Après vous avez juste à suivre le rythme amusez vous bien :)
After you follow the rythm, have fun :)

/!\ I posted the same tab but now i have added the bridge ;)
    J'ai posté la même tab sauf que là j'ai rajouté le bridge ;)
Related for Burn It Down tab
Burn It Down chords by Linkin Park