Song name
# A B C D E F G H I J K L M N O P Q R S T U V W X Y Z

Linkin Park - Burn It Down tab

Linkin Park - Burn it Down tab by Dave Goody
Play in Drop D
Intro(Guitar 1)
E ----------------------------------------------------------------|
B ---5-8-13------8-10------15-13-10------13-12-8------------------|
G ----------------------------------------------------------------| x2
D ----------------------------------------------------------------|
A ----------------------------------------------------------------|
D ----------------------------------------------------------------|

Intro(Guitar 2)
E --------------------------------------------------|
B --------------------------------------------------|
G --------------------------------------------------| x2
D -00000022-3333333---777777799-5555555-------------|
A -00000022-3333333---777777799-5555555-------------|
D -00000022-3333333---777777799-5555555-------------|

Verse something like that(Chester + 1 octave higher)

E -12-13-12-10----8---8-10-12--12--12-13-12-10---10-12-10-10---8--|
B ----------------------------------------------------------------|
G ----------------------------------------------------------------| 
D ----------------------------------------------------------------|
A ----------------------------------------------------------------|
D ----------------------------------------------------------------|


E -8-10-12-12-12-13-12-10----10--12-13--12-10-8--13-12-10-8-10-12-|
B ----------------------------------------------------------------|
G ----------------------------------------------------------------| 
D ----------------------------------------------------------------|
A ----------------------------------------------------------------|
D ----------------------------------------------------------------|

E --13-12-10------------------------------------------------------|
B ----------------------------------------------------------------|
G ----------------------------------------------------------------| 
D ----------------------------------------------------------------|
A ----------------------------------------------------------------|
D ----------------------------------------------------------------|



Chorus(Guitar 1)
E --------------------------------------------------|
B --------------------------------------------------|
G --------------------------------------------------|
D -00000002-3333333---777777779-5555555-------------|
A -00000002-3333333---777777779-5555555-------------|
D -00000002-3333333---777777779-5555555-------------|
Chorus (Guitar 2- Chester)
E ----------------------------------------------------------------|
B -3-10-10-8-10----3-10-10-8-8----10-8----3-10-10-8-10----8-6-----|
G ----------------------------------------------------------------| 
D ----------------------------------------------------------------|
A ----------------------------------------------------------------|
D ----------------------------------------------------------------|

E -6-10-10-8--8-8-6-10-10-8-6-3-----------------------------------|
B ----------------------------------------------------------------|
G ----------------------------------------------------------------| 
D ----------------------------------------------------------------|
A ----------------------------------------------------------------|
D ----------------------------------------------------------------|

Bridge

E ----------------------------------------------------------------|
B ----------------------------------------------------------------|
G ----------------------------------------------------------------| 
D -3--------7--------5--------------------------------------------|
A -3--------7--------5--------------------------------------------|
D -3--------7--------5--------------------------------------------|


Tap to rate this tab
# A B C D E F G H I J K L M N O P Q R S T U V W X Y Z