Song name
# A B C D E F G H I J K L M N O P Q R S T U V W X Y Z

Linkin Park - Burn It Down tab

Intro (Dm F Am G)

e|----8-------10-8-----8---8---|(2x)
B|------8-10-------10----7-----|
G|7-9--------------------------|
D|-----------------------------|
A|-----------------------------|
E|-----------------------------|

Verse:
Dm F Am G

Chorus:
Dm F C G

Mike Shinoda Verse

e|-----------------------------|(2x)
B|6-5--------------------------|
G|------5-7-4------------------|
D|----7------------------------|
A|-----------------------------|
E|-----------------------------|
Tap to rate this tab
# A B C D E F G H I J K L M N O P Q R S T U V W X Y Z