Song name
# A B C D E F G H I J K L M N O P Q R S T U V W X Y Z

Linkin Park - Burn It Down tab

Linkin Park - 'Burn it Down' in Standard tuning.
Of Course it's not 100% right, but it is just my version and i hope it will be 
helpful for someone.

------
Intro
------
Piano
Var.1
e|-------------|(Repeat)
B|-------------|
G|-------2-4-0-|
D|0-2-3--------|
A|-------------|
E|-------------|

Var.2
e|-------------|(Repeat)
B|-------------|
G|-------7-9-5-|
D|5-7-8--------|
A|-------------|
E|-------------|

Synth
e|----8---------------------------|(Repeat)
B|-------8-10--15-13-10--13-12-10-|
G|7-9-----------------------------|
D|--------------------------------|
A|--------------------------------|
E|--------------------------------|

Guitar
e|--------------------------------------|(Repeat)
B|--------------------------------------|
G|-777777-9-----------------------------|
D|-777777-9-33333333--777777-9-55555555-|
A|-555555-7-33333333--777777-9-55555555-|
E|----------11111111--555555-7-33333333-|

------
Verse
------
Piano
Var.1
e|-------------|(Repeat)
B|-------------|
G|-------2-4-0-|
D|0-2-3--------|
A|-------------|
E|-------------|

Var.2
e|-------------|(Repeat)
B|-------------|
G|-------7-9-5-|
D|5-7-8--------|
A|-------------|
E|-------------|

-------
Chorus
-------
Guitar
e|--------------------------------------|(Repeat)
B|--------------------------------------|
G|-777777-9-----------------------------|
D|-777777-9-33333333--777777-9-55555555-|
A|-555555-7-33333333--777777-9-55555555-|
E|----------11111111--555555-7-33333333-|

Piano
Var.1
e|-------------|(Repeat)
B|-------------|
G|-------2-4-0-|
D|0-2-3--------|
A|-------------|
E|-------------|

Var.2
e|-------------|(Repeat)
B|-------------|
G|-------7-9-5-|
D|5-7-8--------|
A|-------------|
E|-------------|

Then
Synth
e|----8---------------------------|(Repeat)
B|-------8-10--15-13-10--13-12-10-|
G|7-9-----------------------------|
D|--------------------------------|
A|--------------------------------|
E|--------------------------------|

Then
Verse
Chorus
Brige
e|-------------|(Repeat)
B|-------------|
G|-------2-4-0-|
D|0-2-3--------|
A|-------------|
E|-------------|

And outro like an intro
End.
Tap to rate this tab
# A B C D E F G H I J K L M N O P Q R S T U V W X Y Z