Song name
# A B C D E F G H I J K L M N O P Q R S T U V W X Y Z

Linkin Park - No More Sorrow tab


Linkin Park - No More Sorrow Tab


Tuning: Drop D. (e.B.G.D.A.D)

Intro:
|--------------------------------|
|--------------------------------|
|--8---10-11----15-13---15-16-15-|
|--------------------------------|
|--------------------------------|
|--------------------------------|
When Drums come in, Guitar 2 
|---------------|---------------------|
|---------------|---------------------|
|---------------|---------------------|
|-1-1-1-1-1-1-1-|-x-x-x--x-x-x-x-x-x-x|
|-1-1-1-1-1-1-1-|-x-x-x--x-x-x-x-x-x-x|
|-1-1-1-1-1-1-1-|-x-x-x--x-x-x-x-x-x-x|
 1st 4 Measures   Include on last 4 Measures (8 Measures in Total)

Chorus:
|-----------------------------------------------------|
|-----------------------------------------------------|
|-----------------------------------------------------|    
|--9-9-9-9-9-9--8-8-8-8-8-8--1-1-1-1-1-1--1-1-1-1-1-1-|  x3
|--9-9-9-9-9-9--8-8-8-8-8-8--1-1-1-1-1-1--1-1-1-1-1-1-|
|--9-9-9-9-9-9--8-8-8-8-8-8--1-1-1-1-1-1--1-1-1-1-1-1-|
4th Time:
|-----------------------------------------------------|
|-----------------------------------------------------|
|-----------------------------------------------------|
|--4-4-4-4-4-4--4-4-4-4-4-4--8-8-8-8-8-8--0-0-0-0-0-0-|
|--4-4-4-4-4-4--4-4-4-4-4-4--8-8-8-8-8-8--0-0-0-0-0-0-|
|--4-4-4-4-4-4--4-4-4-4-4-4--8-8-8-8-8-8--0-0-0-0-0-0-|

Repeat Until Verse:
|---------------------------------------|
|---------------------------------------|
|---------------------------------------|
|-1-1-1-1-1-1-1--1-1-1-1--1-1-1-1-1-1-1-|
|-1-1-1-1-1-1-1--1-1-1-1--1-1-1-1-1-1-1-|
|-1-1-1-1-1-1-1--1-1-1-1--1-1-1-1-1-1-1-|                                          

Verse:
Guitar 1
|--------------------------------|
|--------------------------------|
|--8---10-11----15-13---15-16-15-|
|--------------------------------|
|--------------------------------|
|--------------------------------|
Guitar 2: Not Palm Muted on 5th and 6th time.
|---------------------------------------|---------|
|---------------------------------------|---------|
|---------------------------------------|---------|
|-1-1-1-1-1-1-1--1-1-1-1--1-1-1-1-1-1-1-|-1-1-1-1-|
|-1-1-1-1-1-1-1--1-1-1-1--1-1-1-1-1-1-1-|-1-1-1-1-|
|-1-1-1-1-1-1-1--1-1-1-1--1-1-1-1-1-1-1-|-1-1-1-1-|
PM. . . . . . .  . . . .  . . . . . . .  5th and 6th 






Bridge: 
|-----------------|        |-----------------|
|-----------------|        |-----------------|
|-----------------|        |-----------------|
|-0-1-0-3-2-0-1/5-| x4     |-0-1-0-3-2-0-1/4-|  on 5th time
|-0-1-0-3-2-0-1/5-|        |-0-1-0-3-2-0-1/4-|
|-0-1-0-3-2-0-1/5-|        |-0-1-0-3-2-0-1/4-| 
                                           
                                           



Song layout:

- Verse  (Instrumental)

- Chorus (Instrumental)

- Verse  (Intro/Verse Riff)

- Chorus (Normal Chorus Riff)

- Verse  (Intro/Verse Riff, Guitar 1 play Verse Riff on extra 5th and 6th 
          time)

- Chorus (Normal Chorus Riff) 

- Bridge (Normal Power Chords)

- Verse  (Guitar 2 plays the 1st 4 measures of the intro until chorus)

- Chorus (Intro/Verse Riff)

- Chorus (Chorus Riff x2)(Second to last chord of the final measure is played 
          to the end of the first chorus - second chorus is normal riff)

- Outro  (verse 5/6th measure with guitar 1 intro tab once)



Have fun! :)
Tap to rate this tab
# A B C D E F G H I J K L M N O P Q R S T U V W X Y Z