Song name
# A B C D E F G H I J K L M N O P Q R S T U V W X Y Z

Linkin Park - Blackbirds tab

#x=silence note immediately after playing

This is an easy tab to do, basically because the song is so simple. If there's anything 
wrong, my username is Suroundsound, so just send me a message.


Intro- No guitar 0:23
(Note: This is for the version that begins with the
punk-like tune. If you heard this without that, then
ignore the intro and subtract :30 from each time)

Verse:

E---------------------------------------------------|
B---------------------------------------------------|
G---------------------------------------------------|
D----0--0--0--0--0--0--0--0-------------------------|
A-----0--0--0--0--0--0--0--0------------------------|
E---------------------------------------------------|

Repeat x11 (Or recite it in
your head until it ends)

E---------------------------------------------------|
B---------------------------------------------------|
G---------------------------------------------------|
D----0--0--0----------------------------------------|
A-----0--0--0---------------------------------------|
E---------------------------------------------------|

Main Chorus (1:26):

E----1---3--5--1--1---3--5--1--1---3--5--1--8--8--3--3--|
B-------------------------------------------------------|
G-------------------------------------------------------|
D-------------------------------------------------------|
A-------------------------------------------------------|
E-------------------------------------------------------|

Repeat x6

E----1---3--5--1--1---3--5--1--1------------------------|
B-------------------------------------------------------|
G-------------------------------------------------------|
D-------------------------------------------------------|
A-------------------------------------------------------|
E-------------------------------------------------------|

Bridge (2:26):

E-------------------------------------------------------|
B-------------------------------------------------------|
G----------------------------------------0x-------------|
D----0x--------0x--------0x--------3x-------------------|
A-------------------------------------------------------|
E-------------------------------------------------------|

Repeat x2

Main Chorus


E----1---3--5--1--1---3--5--1--1---3--5--1--8--8--3--3--|
B-------------------------------------------------------|
G-------------------------------------------------------|
D-------------------------------------------------------|
A-------------------------------------------------------|
E-------------------------------------------------------|

Repeat x2

E----1---3--5--1--1---3--5--1--1---3--5--1--8--8--3--3--|
B-------------------------------------------------------|
G-------------------------------------------------------|
D-------------------------------------------------------|
A-------------------------------------------------------|
E-------------------------------------------------------|

Ending

E----1---3--5--1--1---3--5--1---------------------------|
B-------------------------------------------------------|
G-------------------------------------------------------|
D-------------------------------------------------------|
A-------------------------------------------------------|
E-------------------------------------------------------|

Repeat x5

Hold out one on the high E string

End :)
Tap to rate this tab
# A B C D E F G H I J K L M N O P Q R S T U V W X Y Z