Song name
# A B C D E F G H I J K L M N O P Q R S T U V W X Y Z

Linkin Park - Castle Of Glass tab

e|-------------------------------------|
B|-------------------------------------|
G|-------------------------------------|  3x
D|--------1--2--1----------------------|
A|--4--4-----------4--2--2--4----------|
E|-----------------------------2--2--4-|

e|-------------------------------------------------------------------------|
B|-------------------------------------------------------------------------|
G|-------------------------------------------------------------------------|
D|-------------------------------------------------------------------------|
A|-0---0--0-0---0--0-2---2--2-2---2-2--4---4-----4---4-----4---4-----4---4-|
E|-------------------------------------------------------------------------|
Tap to rate this tab
 
# A B C D E F G H I J K L M N O P Q R S T U V W X Y Z