Song name
# A B C D E F G H I J K L M N O P Q R S T U V W X Y Z

Linkin Park - Lost In The Echo tab

Intro:
E------------|
B------------|
G------------|
D------------|
A-0---3~-----|
D---3--------|


E----------------------------------------------------------------------------|
B----------------------------------------------------------------------------|
G----------------------------------------------------------------------------|
D---7-7--7-7-7--x---5-5--5-5-5--x---3-3--3-3-3--x---5-5--5-5-5--x------------|
A---7-7--7-7-7--x---5-5--5-5-5--x---3-3--3-3-3--x---5-5--5-5-5--x--0---3~----|
D---7-7--7-7-7--x---5-5--5-5-5--x---3-3--3-3-3--x---5-5--5-5-5--x----3-------|

(Rythm is like the drumming)


Chorus


E-------------------------------------------------------------------|
B-------------------------------------------------------------------|
G-------------------------------------------------------------------|
D---7-7-7-7-7-7-7-7-5-5-5-5-5-5-5-5-3-3-3-3-3-3-3-3-5-5-5-5-5-5-5-5-|
A---7-7-7-7-7-7-7-7-5-5-5-5-5-5-5-5-3-3-3-3-3-3-3-3-5-5-5-5-5-5-5-5-|
D---7-7-7-7-7-7-7-7-5-5-5-5-5-5-5-5-3-3-3-3-3-3-3-3-5-5-5-5-5-5-5-5-|


E------------|
B------------|
G------------|
D------------|
A-0---3~-----|
D---3--------|

This is it. If someone tabbed the effects comment me below
Tap to rate this tab
 
# A B C D E F G H I J K L M N O P Q R S T U V W X Y Z