Song name
# A B C D E F G H I J K L M N O P Q R S T U V W X Y Z

Linkin Park - Roads Untraveled tab

This is another one From new LP LIVING THINGS ALBUM.

enjoy and rate please!

Intro + Verse :

e|------------------------------------------------------------------------|
B|------------------------------------------------------------------------|
G|---------4-4----------4-4-----------------9-9--8-8--8-8----------8-8----|
D|----6-6--4-4--2--6-6--4-4--4------6--8----9-9--9-9--8-8--6-6-6-6-8-8--6-|
A|----6-6--2-2--2--6-6--2-2--4--------------7-7--6-6--6-6--6-6-6-6-6-6--6-|
E|----4-4-------0--4-4-------2-----------------------------4-4-4-4------4-|

Chours : 

same chord as the verse + electric guitar.


second verse :


e|------------------------------------------------------------------------|
B|------------------------------------------------------------------------|
G|---------4-4----------4-4-----------------9-9--8-8--8-8----------8-8----|
D|----6-6--4-4--2--6-6--4-4--4------6--8----9-9--9-9--8-8--6-6-6-6-8-8--6-|
A|----6-6--2-2--2--6-6--2-2--4--------------7-7--6-6--6-6--6-6-6-6-6-6--6-|
E|----4-4-------0--4-4-------2-----------------------------4-4-4-4------4-|


reapet this :

e|--------------------------------|
B|--------------------------------|
G|-9-9--8-8--8-8----------8-8-----|
D|-9-9--9-9--8-8--6-6-6-6-8-8--6--|
A|-7-7--6-6--6-6--6-6-6-6-6-6--6--|
E|----------------4--4-4-4-4----4-|
Tap to rate this tab
 
# A B C D E F G H I J K L M N O P Q R S T U V W X Y Z