Song name
# A B C D E F G H I J K L M N O P Q R S T U V W X Y Z

Linkin Park - One Step Closer tab

Linkin Park

One Step Closer

Tuning: Drop Db (or drop C#) Db-Ab-Db-Gb-Bb-eb (or C#-G#-C#-F#-A#-D#)

x = muted

H = Harmonic

/ = Slide

p = pull-off

Intro:

|--------------------|
|--------------------|
|--------------------|
|--------------------| x4
|--------------------|
|0-12-0-14--8-7-0-3--|

Then:

|---------------------|
|---------------------|
|--------9----------5-|
|0-0-(0)----8-7-(0)---| x4
|0-0-(0)-7--8-7-(0)-3-|
|0-0--------8-7-------|

Verse:

|---------------------|
|---------------------|
|--------9----------5-|
|0-0-(0)----8-7-(0)---| x8
|0-0-(0)-7--8-7-(0)-3-|
|0-0--------8-7-------|

Pre chorus:

|------------------------|
|------------------------|
|------------------------|
|5-5-x-x-5-5-x-x-5-5-x-x-|
|5-5-x-x-5-5-x-x-5-5-x-x-|
|5-5-x-x-5-5-x-x-5-5-x-x-|

Chorus:

|----------------------|
|----------------------|
|----------------------|
|0-12-10-7-8-8-5-7-7-3-| x2
|0-12-10-7-8-8-5-7-7---|
|0-12-10-7-8-8-5-7-7-1-|

Verse:

|---------------------|
|---------------------|
|--------9----------5-|
|0-0-(0)----8-7-(0)---| x8
|0-0-(0)-7--8-7-(0)-3-|
|0-0--------8-7-------|

Pre chorus:        
                     HHHH
|--------------------5555-|
|--------------------5555-|
|--------------------5555-|
|5-5-x-x-5-5-x-x-5-5------|
|5-5-x-x-5-5-x-x-5-5------|
|5-5-x-x-5-5-x-x-5-5------|

Chorus:

|----------------------|
|----------------------|
|----------------------|
|0-12-10-7-8-8-5-7-7-3-| x4
|0-12-10-7-8-8-5-7-7---|
|0-12-10-7-8-8-5-7-7-1-|

|----------------------|
|----------------------|
|----------------------|
|3-3-3-3-3-3-3-3-------|
|----------------------|
|1-1-1-1-1-1-1-1-------|

Interlude:

|--------------------|
|--------------------|
|--------------------|
|--------------------| x4
|--------------------|
|0-12-0-14--8-7-0-3--|

"Shut up" part:

|-----------------------|
|-----------------------|
|-----------------------|
|3-0-x-x--x-1-2-1-0/6p0-| x3
|3-0-x-x--x-1-2-1-0/6p0-|
|3-0-x-x--x-1-2-1-0/6p0-|

|-----------------------|
|-----------------------|
|---------------x-x-x-x-|
|3-0-x-x--x-0-0-x-x-x-x-|
|3-0-x-x--x-0-0-x-x-x-x-|
|3-0-x-x--x-0-0-x-x-x-x-|

|-----------------------|
|-----------------------|
|-----------------------|
|3-0-x-x--x-1-2-1-0/6p0-| x3
|3-0-x-x--x-1-2-1-0/6p0-|
|3-0-x-x--x-1-2-1-0/6p0-|

|-----------------------|
|-----------------------|
|---------------5-5-5-5-|
|3-0-x-x--x-0-0-5-5-5-5-|
|3-0-x-x--x-0-0-5-5-5-5-|
|3-0-x-x--x-0-0-5-5-5-5-|

Chorus:

|----------------------|
|----------------------|
|----------------------|
|0-12-10-7-8-8-5-7-7-3-| x4
|0-12-10-7-8-8-5-7-7---|
|0-12-10-7-8-8-5-7-7-1-|

|----------------------|
|----------------------|
|----------------------|
|3-3-3-3-3-3-3-3-------|
|----------------------|
|1-1-1-1-1-1-1-1-------|

For comments please write to jessen.marcus@gmail.com
Tap to rate this tab
 
# A B C D E F G H I J K L M N O P Q R S T U V W X Y Z