Song name
# A B C D E F G H I J K L M N O P Q R S T U V W X Y Z

Linkin Park - Castle Of Glass tab

Rythm Guitar:


Intro

e | --------------------------------------------------------------------------------------|
B | --------------------------------------------------------------------------------------|
G | --------------------------------------------------------------------------------------| 
D | --------------------------------------------------------------------------------------|  x 3
A | --2--4--4--6--7--6--4--2--2--4--------------------------------------------------------|
E | --------------------------------------------------------------------------------------|

e | --------------------------------------------------------------------------------------|
B | --------------------------------------------------------------------------------------|
G | --------------------------------------------------------------------------------------| 
D | --------------------------------------------------------------------------------------|  
A | --2--4--4--4-4--4--4--2--2--2-2--2--2---4-4----4-4----4-4----4-4----------------------|
E | --------------------------------------------------------------------------------------|


Verse

e | -------------------------------------------------------------------------------------|
B | -------------------------------------------------------------------------------------|
G | -------------------------------------------------------------------------------------|   
D | -------------------------------------------------------------------------------------|  x 2
A | --4-4--4-4--4-4--4-4--4-4--4-4--4-4--4-4--6-6--6-6--6-6--6-6--7-7--7-6-4--4-4--4-4---|
E | -------------------------------------------------------------------------------------|


Chorus

e | -------------------------------------------------------------------------------------|
B | -------------------------------------------------------------------------------------|
G | -------------------------------------------------------------------------------------|
D | -------------------------------------------------------------------------------------|  x 2
A | --4-4-4-4-4-4-6-4-7-7-7-7-7-7-9-7-9-9-9-9-9-9-9-9-11-11-11-11-9-9-9-9----------------|
E | -------------------------------------------------------------------------------------|

Intro x 2

Verse x 2

Chorus x 2

Bridge or Solo, can't really figure out, what it is:

e | --------------------------------------------------------------------------------------|
B | --------------------------------------------------------------------------------------|
G | --------------------------------------------------------------------------------------| 
D | --------------------------------------------------------------------------------------|  x 2
A | --4--4--6--7--6--4--2--2--4--------2--4-4--2-4-4--2-4-4--2-4-4------------------------|
E | ------------------------------2-------------------------------------------------------|

Chorus x 2 

Intro



Lead Guitar:


Starts after the first chorus with:

e | --------------------------------------------------------------------------------------|
B | --------------------------------------------------------------------------------------|
G | --6-6-6-6-6-6-6-6-6-6-6-6-6-6-6-6-----------------------------------------------------| 
D | --6-6-6-6-6-6-6-6-6-6-6-6-6-6-6-6-----------------------------------------------------|  x 2
A | --4-4-4-4-4-4-4-4-4-4-4-4-4-4-4-4-----------------------------------------------------|
E | --------------------------------------------------------------------------------------|


Chorus ( x 2 )

e | -------------------------------------------------------------------------------------------|
B | -------------------------------------------------------------------------------------------|
G | --6-6-6-6-6-6-6-6-9-9-9-9-9-9-9-9-11-11-11-11-11-11-11-11-13-13-13-13-11-11-11-11----------|
D | --6-6-6-6-6-6-6-6-9-9-9-9-9-9-9-9-11-11-11-11-11-11-11-11-13-13-13-13-11-11-11-11----------|
A | --4-4-4-4-4-4-4-4-7-7-7-7-7-7-7-7-9--9--9--9--9--9--9--9--11-11-11-11-9--9--9--9-----------|
E | -------------------------------------------------------------------------------------------|


Bridge/ Solo ( x 2 )

e | -------------------------------------------------------------------------|
B | -------------------------------------------------------------------------|
G | -6--6-6-6-8--9--8-8-8--6--4--4-4-4--6------4---6--6-6-6--4---6--6-6-6--4-|
D | -6--6-6-6-8--9--8-8-8--6--4--4-4-4--6--4---4---6--6-6-6--4---6--6-6-6--4-|
A | -4--4-4-4-6--7--6-6-6--4--2--2-2-2--4--4---2---4--4-4-4--2---4--4-4-4--2-|
E | ---------------------------------------2---------------------------------|

--------------------------|
--------------------------|
--6--6-6-6--4---6--6-6-6--|
--6--6-6-6--4---6--6-6-6--|
--4--4-4-4--2---4--4-4-4--|
--------------------------|


Chorus

Intro
Tap to rate this tab
# A B C D E F G H I J K L M N O P Q R S T U V W X Y Z