Song name
# A B C D E F G H I J K L M N O P Q R S T U V W X Y Z

Linkin Park - Ill Be Gone tab

"I'll be gone" from the new album "living things"
Tabbed by Galva94

Drop D tuning


SONG PARTS:
synth(without guitar)
intro
verse(without guitar)
chorus1 2x
verse(without guitar)
chorus1 2x
bridge
chorus2
chorus3

Intro/chorus1

E|---------------------------------|---------------------------------|
B|---------------------------------|---------------------------------|
G|-------------------------9-9-9-9-|-------------------------9-9-9-9-|
D|-7-7-7-7-7-7-7-7-7-7-7-7-x-x-x-x-|-101010101010101010101010x-x-x-x-|
A|-7-7-7-7-7-7-7-7-7-7-7-7-7-7-7-7-|-1010101010101010101010107-7-7-7-|
D|-7-7-7-7-7-7-7-7-7-7-7-7---------|-101010101010101010101010--------|
   1   +   2   +   3   +   4   +     1   +   2   +   3   +   4   +

E|---------------------------------|---------------------------------|
B|---------------------------------|---------------------------------|
G|---------------------------------|---------------------------------|
D|-5-5-5-5-5-5-5-5-5-5-5-5-5-5-5-5-|-0-0-0-0-0-0-0-0-2-2-2-2-2-2-2-2-|
A|-5-5-5-5-5-5-5-5-5-5-5-5-5-5-5-5-|-0-0-0-0-0-0-0-0-2-2-2-2-2-2-2-2-|
D|-5-5-5-5-5-5-5-5-5-5-5-5-5-5-5-5-|-0-0-0-0-0-0-0-0-2-2-2-2-2-2-2-2-|
   1   +   2   +   3   +   4   +     1   +   2   +   3   +   4   +

Bridge

E|---------------------------------|---------------------------------|
B|---------------------------------|---------------------------------|
G|---------------------------------|---------------------------------|
D|-3-3-3-3-3-3-3-3-0-0-0-0-0-0-0-0-|-7-7-7-7-7-7-7-7-7-7-7-7-7-7-7-7-|
A|-3-3-3-3-3-3-3-3-0-0-0-0-0-0-0-0-|-7-7-7-7-7-7-7-7-7-7-7-7-7-7-7-7-|
D|-3-3-3-3-3-3-3-3-0-0-0-0-0-0-0-0-|-7-7-7-7-7-7-7-7-7-7-7-7-7-7-7-7-|
   1   +   2   +   3   +   4   +     1   +   2   +   3   +   4   +
   tell them       I  couldn't       help myself                  and

E|---------------------------------|---------------------------------|
B|---------------------------------|---------------------------------|
G|---------------------------------|---------------------------------|
D|-3-3-3-3-3-3-3-3-0-0-0-0-0-0-0-0-|-2-2-2-2-2-2-2-2-2-2-2-2-2-2-2-2-|
A|-3-3-3-3-3-3-3-3-0-0-0-0-0-0-0-0-|-2-2-2-2-2-2-2-2-2-2-2-2-2-2-2-2-|
D|-3-3-3-3-3-3-3-3-0-0-0-0-0-0-0-0-|-2-2-2-2-2-2-2-2-2-2-2-2-2-2-2-2-|
   1   +   2   +   3   +   4   +     1   +   2   +   3   +   4   +
   tell them       I    was          alone

E|---------------------------------|---------------------------------|
B|---------------------------------|---------------------------------|
G|---------------------------------|---------------------------------|
D|-3-3-3-3-3-3-3-3-0-0-0-0-0-0-0-0-|-7-7-7-7-5-5-5-5-3-3-3-3-3-3-3-3-|
A|-3-3-3-3-3-3-3-3-0-0-0-0-0-0-0-0-|-7-7-7-7-5-5-5-5-3-3-3-3-3-3-3-3-|
D|-3-3-3-3-3-3-3-3-0-0-0-0-0-0-0-0-|-7-7-7-7-5-5-5-5-3-3-3-3-3-3-3-3-|
   1   +   2   +   3   +   4   +     1   +   2   +   3   +   4   +
   tell them       I  am the        on_______ly      one     and there's 

E|---------------------------------|---------------------------------|
B|---------------------------------|---------------------------------|
G|---------------------------------|---------------------------------|
D|-0-0-0-0-0-0-0-0-2-2-2-2-2-2-2-2-|-2-2-2-2-2-2-2-2-2-2-2-2-2-2-2-2-|
A|-0-0-0-0-0-0-0-0-2-2-2-2-2-2-2-2-|-2-2-2-2-2-2-2-2-2-2-2-2-2-2-2-2-|
D|-0-0-0-0-0-0-0-0-2-2-2-2-2-2-2-2-|-2-2-2-2-2-2-2-2-2-2-2-2-2-2-2-2-|
   1   +   2   +   3   +   4   +     1   +   2   +   3   +   4   +
   nothing left to stop me__                                when the


chorus2 (exactly like the first chorus but with octaves)
E|---------------------------------|---------------------------------|
B|---------------------------------|---------------------------------|
G|-------------------------9-9-9-9-|-------------------------9-9-9-9-|
D|-7-7-7-7-7-7-7-7-7-7-7-7-x-x-x-x-|-101010101010101010101010x-x-x-x-|
A|-x-x-x-x-x-x-x-x-x-x-x-x-7-7-7-7-|-x-x-x-x-x-x-x-x-x-x-x-x-7-7-7-7-|
D|-7-7-7-7-7-7-7-7-7-7-7-7---------|-101010101010101010101010--------|
   1   +   2   +   3   +   4   +     1   +   2   +   3   +   4   +
   lights go out and we open our eyes out there in the silence ill be

E|---------------------------------|---------------------------------|
B|---------------------------------|---------------------------------|
G|---------------------------------|---------------------------------|
D|-5-5-5-5-5-5-5-5-5-5-5-5-5-5-5-5-|-0-0-0-0-0-0-0-0-2-2-2-2-2-2-2-2-|
A|-x-x-x-x-x-x-x-x-x-x-x-x-x-x-x-x-|-x-x-x-x-x-x-x-x-x-x-x-x-x-x-x-x-|
D|-5-5-5-5-5-5-5-5-5-5-5-5-5-5-5-5-|-0-0-0-0-0-0-0-0-2-2-2-2-2-2-2-2-|
   1   +   2   +   3   +   4   +     1   +   2   +   3   +   4   +
   go_________________ne    ill be   go_____________o_____________ne

chorus3
E|---------------------------------|---------------------------------|
B|---------------------------------|---------------------------------|
G|-------------------------9-9-9-9-|-------------------------9-9-9-9-|
D|-7-7-7-7-7-7-7-7-7-7-7-7-x-x-x-x-|-101010101010101010101010x-x-x-x-|
A|-7-7-7-7-7-7-7-7-7-7-7-7-7-7-7-7-|-1010101010101010101010107-7-7-7-|
D|-7-7-7-7-7-7-7-7-7-7-7-7---------|-101010101010101010101010--------|
   1   +   2   +   3   +   4   +     1   +   2   +   3   +   4   +
                                                             i'll be
E|---------------------------------|---------------------------------|
B|---------------------------------|---------------------------------|
G|---------------------------------|---------------------------------|
D|-5-5-5-5-5-5-5-5-5-5-5-5-5-5-5-5-|-0-0-0-0-0-0-0-0-0-0-0-0-0-0-0-0-|
A|-5-5-5-5-5-5-5-5-5-5-5-5-5-5-5-5-|-0-0-0-0-0-0-0-0-0-0-0-0-0-0-0-0-|
D|-5-5-5-5-5-5-5-5-5-5-5-5-5-5-5-5-|-0-0-0-0-0-0-0-0-0-0-0-0-0-0-0-0-|
   1   +   2   +   3   +   4   +     1   +   2   +   3   +   4   +
   go_________________ne    ill be   go_________________ne   i'll be

E|---------------------------------|---|
B|---------------------------------|---|
G|---------------------------------|---|
D|-2-2-2-2-2-2-2-2-2-2-2-2-2-2-2-2-|-7-|
A|-x-x-x-x-x-x-x-x-x-x-x-x-x-x-x-x-|-7-|
D|-2-2-2-2-2-2-2-2-2-2-2-2-2-2-2-2-|-7-|
   1   +   2   +   3   +   4   + 
   gooooooooooooone!
Tap to rate this tab
# A B C D E F G H I J K L M N O P Q R S T U V W X Y Z