Song name
# A B C D E F G H I J K L M N O P Q R S T U V W X Y Z

Linkin Park - Victimized tab

Tabs by Richi Rich. This is my first time doing tabs so do forgive me if they're not 
100% correct. Use your intuition and play along to the song, you'll get it.

Check out my cover on Youtube "Victimized Full Cover by Richi Rich" - I promise you'll 
like it :)

Drop D tuning    x = palm mute

Intro :

Guitar 1

E|---------------------------------------------|
B|---------------------------------------------|
G|---------------------------------------------|      x2
D|-0-0-0-0-0-x----0-0-x---0-0-0-0-0-x----------|
A|-0-0-0-0-0-x----0-0-x---0-0-0-0-0-x----------|
D|-0-0-0-0-0-x----0-0-x---0-0-0-0-0-x----------|

Guitar 2

You have to strum this part. Always keep your finger pressed on the D string (on 5), 
even when you play the B string (on 7).

E|---------------------------------------------|
B|---------7----7-------7----------------------|
G|---------------------------------------------|      x 2
D|-5-5-5-5-5--5-5--5-5-5-5---------------------|
A|---------------------------------------------|
D|---------------------------------------------|


The chorus is exactly the same thing, but you Guitar 1 is playing


For the part where Mike raps

Guitar 1

E|-----------------------------------------------------------|
B|-----------------------------------------------------------|
G|-----------------------------------------------------------|
D|-0----0-0-1---0----0-0-1----0---0-0-3----0---0-0-3---------|
A|-0----0-0-1---0----0-0-1----0---0-0-3----0---0-0-3---------|
D|-0----0-0-1---0----0-0-1----0---0-0-3----0---0-0-3---------|


E|-----------------------------------------------------------|
B|-----------------------------------------------------------|
G|-----------------------------------------------------------|
D|-0----0-0-1---0----0-0-1----0---0-0-3----------------------|
A|-0----0-0-1---0----0-0-1----0---0-0-3----------------------|
D|-0----0-0-1---0----0-0-1----0---0-0-3----------------------|


Now you do the same chorus part (only Guitar 1)


For the ending :

Guitar 1

E|---------------------------------------------|
B|---------------------------------------------|
G|---------------------------------------------|
D|-0-0-0-0-1---0-0-1---0-0-0-0-0-1-------------|
A|-0-0-0-0-1---0-0-1---0-0-0-0-0-1-------------|
D|-0-0-0-0-1---0-0-1---0-0-0-0-0-1-------------|


E|---------------------------------------------|
B|---------------------------------------------|
G|---------------------------------------------|
D|-0-0-0-0-1---0-0-1---0-0-0-0-0-1-------------|
A|-0-0-0-0-1---0-0-1---0-0-0-0-0-1-------------|
D|-0-0-0-0-1---0-0-1---0-0-0-0-0-1-------------|


E|---------------------------------------------|
B|---------------------------------------------|
G|---------------------------------------------|
D|-0-0-0-0-1---0-0-1---0-0-0-0-0-1-------------|
A|-0-0-0-0-1---0-0-1---0-0-0-0-0-1-------------|
D|-0-0-0-0-1---0-0-1---0-0-0-0-0-1-------------|

E|---------------------------------------------|
B|---------------------------------------------|
G|---------------------------------------------|
D|-0-0-1--0-0-1--0-0-1-0-0-0-0-0-0-------------|
A|-0-0-1--0-0-1--0-0-1-0-0-0-0-0-0-------------|
D|-0-0-1--0-0-1--0-0-1-0-0-0-0-0-0-------------|


Then just before the end Guitar 2 comes back in and you play this :

Guitar 1

E|---------------------------------------------|
B|---------------------------------------------|
G|---------------------------------------------|      x2
D|-0-0-0-0-0-x----0-0-x---0-0-0-0-0-x----------|
A|-0-0-0-0-0-x----0-0-x---0-0-0-0-0-x----------|
D|-0-0-0-0-0-x----0-0-x---0-0-0-0-0-x----------|

Guitar 2

E|---------------------------------------------|
B|---------7----7-------7----------------------|
G|---------------------------------------------|      x 2
D|-5-5-5-5-5--5-5--5-5-5-5---------------------|
A|---------------------------------------------|
D|---------------------------------------------|
Tap to rate this tab
# A B C D E F G H I J K L M N O P Q R S T U V W X Y Z