Song name
# A B C D E F G H I J K L M N O P Q R S T U V W X Y Z

Linkin Park - Lost In The Echo tab

Artist: Linkin Park
Song: Lost in The Echo
Tuning: Drop D
Tabbed By: shredforever

This is a great new song off of Linkin Park's album Living Things.
The guitar part itself is really easy, so i tabbed out some of the
effects throughout the song and added 2 guitars for them to make 
the song more interesting to play. Effect Guitar 1 plays almost
the same thing for the whole song, with a slight variation at the 
end of the verses. The verse part of Effect Guitar 2 is really quiet
but if you listen its in there. Whenever I have something like x13 
its the number of times to play the note above it, I just didn't 
want to type the fingering a ton of times in a row.

Intro - Part 1
Effect Guitar 1
e|-----------------------------------------------|  
B|---------------15-15-15-----17-17-17-18--15----|
G|--14-14-14-17-----------17---------------------| x2
D|-----------------------------------------------|
A|-----------------------------------------------|
D|-----------------------------------------------|
             x13          x13          x13 x16
Effect Guitar 2
e|----------------------------12--------10-10--10-10-10---|
B|--10---12---13-13--13-13-13------13---------------------|
G|--------------------------------------------------------|
D|--------------------------------------------------------|
A|--------------------------------------------------------|
D|--------------------------------------------------------|

e|----------------------------------------------------------|
B|----------------------------------------------------------|
G|--13---12---10-10--10-10-10---13---10---12-12--12-12-12---|
D|----------------------------------------------------------|
A|----------------------------------------------------------|
D|----------------------------------------------------------|

Intro - Part 2
Effect Guitar 1
Plays same part as in intro part 1

Effect Guitar 2
e|------------------12--------10-10--10-10-10---|                        -|
B|--13-13--13-13-13------13---------------------|                         |
G|----------------------------------------------|                         |
D|----------------------------------------------|                         |
A|----------------------------------------------|                         |
D|----------------------------------------------|                         |
                                                                          | x2
e|--------------------------------------------------------------------|   |
B|--------------------------------------------------------------------|   |
G|--13---12---10-10--10-10-10---13---10---12-12--12-12-12--10---12----|   |
D|--------------------------------------------------------------------|   |
A|--------------------------------------------------------------------|   |
D|--------------------------------------------------------------------|  -|

Main Guitar 
e|-----------------------------------------------------------------------|
B|-----------------------------------------------------------------------|
G|--------------------------------------------------7-7--7-7-7-----------| 
D|-----------7-7--7-7-7---5-5--5-5-5---3-3--3-3-3---7-7--7-7-7-----------|
A|--0---3----7-7--7-7-7---5-5--5-5-5---3-3--3-3-3---5-5--5-5-5---0---3---|
D|-----------7-7--7-7-7---5-5--5-5-5---3-3--3-3-3------------------------|

e|--------------------------------------------------------------|
B|--------------------------------------------------------------|
G|-----------------------------------------7-7--7-7-7-----------| 
D|--7-7--7-7-7---5-5--5-5-5---3-3--3-3-3---7-7--7-7-7-----------|
A|--7-7--7-7-7---5-5--5-5-5---3-3--3-3-3---5-5--5-5-5---0---3---|
D|--7-7--7-7-7---5-5--5-5-5---3-3--3-3-3------------------------|

Verse
Effect Guitar 1
e|-----------------------------------------------|  
B|---------------15-15-15-----17-17-17-18--15----|
G|--14-14-14-17-----------17---------------------| x2
D|-----------------------------------------------|
A|-----------------------------------------------|
D|-----------------------------------------------|
             x13          x13          x13 x16
Effect Guitar 2 - all notes are palm muted
e|------------------|
B|------------------|
G|------------------| x2  
D|--14------14-15---|     there is a long pause between the first set
A|------------------|     of 14s and the second set
D|------------------|
    x16    x12 x16

Then
Effect Guitar 1
e|-------------------------------------------------------|
B|--15---------------15--------15---------------15--17---|
G|------17--16-16-16-----17--------17-16-16-16-----------|
D|-------------------------------------------------------|
A|-------------------------------------------------------|
D|-------------------------------------------------------|
   x16  x16         x13 x16   x16 x16           x13 x16
Effect Guitar 2 - all notes are palm muted
e|-----------------------------------------------|
B|-----------------------------------------------|
G|--------14-14-14-12-----------14-14-14-12-13---|
D|--15-14-------------14--15-14------------------|
A|-----------------------------------------------|
D|-----------------------------------------------|
   x16 x16        x13 x16 x16 x16        x13 x16

Chorus
Effect Guitar 1
e|-----------------------------------------------|  
B|---------------15-15-15-----17-17-17-18--15----|
G|--14-14-14-17-----------17---------------------| x2
D|-----------------------------------------------|
A|-----------------------------------------------|
D|-----------------------------------------------|
             x13          x13          x13 x16
Main Guitar
e|-----------------------------------------------------------------------|
B|-----------------------------------------------------------------------|
G|-----------------------------------------------------7-7-7-7-----------| x2
D|--7-7-7-7-7-7-7-7--5-5-5-5-5-5-5-5--3-3-3-3-3-3-3-3--7-7-7-7-----------|
A|--7-7-7-7-7-7-7-7--5-5-5-5-5-5-5-5--3-3-3-3-3-3-3-3--5-5-5-5---0---3---|
D|--7-7-7-7-7-7-7-7--5-5-5-5-5-5-5-5--3-3-3-3-3-3-3-3--------------------|

Post-Chorus
Effect Guitar 1
same as intro

Effect Guitar 2
Same as intro

Main Guitar
e|--------------------------------------------------------------|
B|--------------------------------------------------------------|
G|-----------------------------------------7-7--7-7-7-----------|
D|--7-7--7-7-7---5-5--5-5-5---3-3--3-3-3---7-7--7-7-7-----------|
A|--7-7--7-7-7---5-5--5-5-5---3-3--3-3-3---5-5--5-5-5---0---3---|
D|--7-7--7-7-7---5-5--5-5-5---3-3--3-3-3------------------------|

Verse

Chorus

Bridge
Effect Guitar 1
e|-----------------------------------------------|  
B|---------------15-15-15-----17-17-17-18--15----|
G|--14-14-14-17-----------17---------------------| x2
D|-----------------------------------------------|
A|-----------------------------------------------|
D|-----------------------------------------------|
             x13          x13          x13 x16
Main Guitar 
e|--------------------------------------------------------------|
B|--------------------------------------------------------------|
G|-----------------------------------------7-7--7-7-7-----------| x2
D|--7-7--7-7-7---5-5--5-5-5---3-3--3-3-3---7-7--7-7-7-----------|
A|--7-7--7-7-7---5-5--5-5-5---3-3--3-3-3---5-5--5-5-5---0---3---|
D|--7-7--7-7-7---5-5--5-5-5---3-3--3-3-3------------------------|
the second time through the main guitar part let the last strum of each chord ring

Chorus
Post Chorus
Tap to rate this tab
# A B C D E F G H I J K L M N O P Q R S T U V W X Y Z