Song name
# A B C D E F G H I J K L M N O P Q R S T U V W X Y Z

Linkin Park - Ill Be Gone tab

--------------------------------------------------
|Hey guys, I'm Aryaan. :D                         |
|So well, I am hooked onto this song,             |
|I'll be Gone' from Linkin Park's                 |
|brilliant new album 'Living Things'.             |
|The song is filled with power                    |
|chords, which were very, very easy               |
|to figure out. Feel free to tell                 |
|me about my mistakes (if they're                 |
|any, I feel it's 100% correct), and praise me. ;)|
|Tuning- Standard                                 |
--------------------------------------------------


e|------------------------------------------------------------|
b|------------------------------------------------------------|
g|------------------------------------------------------------|
d|-777777777777---14141414--101010101010101010101010--14141414|
a|-777777777777---14141414--101010101010101010101010--14141414|
E|-555555555555---12121212---8-8-8-8-8-8-8-8-8-8-8-8--12121212|

e|------------------------------------------------------------|
b|------------------------------------------------------------|
g|-------------------77777777--99999999-----------------------|
d|-5555555555555555--77777777--77777777--7----------|
a|-5555555555555555--55555555--77777777--5----------|
E|-3333333333333333----------------------5----------|

Chester
VERSE
Like shining oil, this night is dripping down
Stars are slipping down, glistening
And I'm trying not to think what I'm leaving now
No deceiving now, it's time you let me know
Let me know



CHORUS
When the lights go out and we open our eyes
Out there in the silence, I'll be gone, I'll be gone
Let the sun fade out and another one rise
Climbing through tomorrow, I'll be gone, I'll be gone


NOTE- The guitar part is the same as the verse, and as I'm not a prick, I won't tell you 
to scroll up, i'll nicely copy-paste :D
e|------------------------------------------------------------|
b|------------------------------------------------------------|
g|------------------------------------------------------------|
d|-777777777777---14141414--101010101010101010101010--14141414|
a|-777777777777---14141414--101010101010101010101010--14141414|
E|-555555555555---12121212---8-8-8-8-8-8-8-8-8-8-8-8--12121212|

e|------------------------------------------------------------|
b|------------------------------------------------------------|
g|-------------------77777777--99999999-----------------------|
d|-5555555555555555--77777777--77777777--7----------|
a|-5555555555555555--55555555--77777777--5----------|
E|-3333333333333333----------------------5----------|

Play this 2 times for chorus

VERSE 2
This air between us is getting thinner now
Into winter now, bitter sweet
Across that horizon this sun is setting down
You're forgetting now, its time you let me go
Let me go


Chorus
When the lights go out and we open our eyes
Out there in the silence, I'll be gone, I'll be gone
Let the sun fade out and another one rise
Climbing through tomorrow, I'll be gone, I'll be gone


Note- Same stuff, but me izza nice guy :)
e|------------------------------------------------------------|
b|------------------------------------------------------------|
g|------------------------------------------------------------|
d|-777777777777---14141414--101010101010101010101010--14141414|
a|-777777777777---14141414--101010101010101010101010--14141414|
E|-555555555555---12121212---8-8-8-8-8-8-8-8-8-8-8-8--12121212|

e|------------------------------------------------------------|
b|------------------------------------------------------------|
g|-------------------77777777--99999999-----------------------|
d|-5555555555555555--77777777--77777777-----------------------|
a|-5555555555555555--55555555--77777777-----------------------|
E|-3333333333333333-------------------------------------------|


Bridge Part
And tell them I couldn't help myself
And tell them I was alone
Oh, tell me I am the only one
and there's nothing left to stop me


e|------------------------------------------------------------|
b|------------------------------------------------------------|
g|----1010101010101010--77777777-999999-55-22222222-----------|
d|----1010101010101010--77777777-999999-55-22222222-----------|
a|-----8-8-8-8-8-8-8-8--55555555-777777-33-00000000-----------|
E|------------------------------------------------------------|

e|------------------------------------------------------------|
b|------------------------------------------------------------|
g|----1010101010101010--77777777--9999999999999999------------|
d|----1010101010101010--77777777--9999999999999999------------|
a|-----8-8-8-8-8-8-8-8--55555555--7777777777777777------------|
E|------------------------------------------------------------|

e|------------------------------------------------------------|
b|------------------------------------------------------------|
g|----1010101010101010--77777777--9999-7777-55555555----------|
d|----1010101010101010--77777777--9999-7777-55555555----------|
a|-----8-8-8-8-8-8-8-8--55555555--7777-5555-33333333----------|
E|------------------------------------------------------------|

e|------------------------------------------------------------|
b|------------------------------------------------------------|
g|----77777777--9999999999999999------------------------------|
d|----77777777--9999999999999999------------------------------|
a|----55555555--7777777777777777------------------------------|
E|------------------------------------------------------------|

When the lights go out and we open our eyes
Out there in the silence, I'll be gone, I'll be gone
Guitar


e|------------------------------------------------------------|
b|------------------------------------------------------------|
g|------------------------------------------------------------|
d|-777777777777---14141414--101010101010101010101010--14141414|
a|-777777777777---14141414--101010101010101010101010--14141414|
E|-555555555555---12121212---8-8-8-8-8-8-8-8-8-8-8-8--12121212|

e|------------------------------------------------------------|
b|------------------------------------------------------------|
g|-------------------77777777--99999999-----------------------|
d|-5555555555555555--77777777--77777777-----------------------|
a|-5555555555555555--55555555--77777777-----------------------|
E|-3333333333333333-------------------------------------------|


Let the sun fade out and another one rise
Climbing through tomorrow, I'll be gone, I'll be gone
Guitar

e|------------------------------------------------------------|
b|------------------------------------------------------------|
g|------------------------------------------------------------|
d|-777777777777---14141414--101010101010101010101010--14141414|
a|-777777777777---14141414--101010101010101010101010--14141414|
E|-555555555555---12121212---8-8-8-8-8-8-8-8-8-8-8-8--12121212|

e|----------------------------------------------------------------|
b|----------------------------------------------------------------|
g|-------------------7777777777777777--9999999999999999-|
d|-5555555555555555--7777777777777777--7777777777777777-|
a|-5555555555555555--5555555555555555--7777777777777777-|
E|-3333333333333333-----------------------------------------------|


----------------------------------------------------------------------------
So there it is, folks! Feel free to comment! :D
(KICK ASS SONG FROM A KICK ASS ALBUM!)
Email- aryaan_ishan@hotmail.com
Tap to rate this tab
# A B C D E F G H I J K L M N O P Q R S T U V W X Y Z