Song name
# A B C D E F G H I J K L M N O P Q R S T U V W X Y Z

Linkin Park - Castle Of Glass tab

Rythm Guitar:

Intro

e |-----------------------|
B |-----------------------|
G |-----------------------|
D |-----------------------| (x3)
A |-4-4-6-7-6-4-2-2-------|
E |----------------2-2-2--| 

e |----------------------------------------|
B |----------------------------------------|
G |----------------------------------------|
D |----------------------------------------|
A |-0-0-0-0-0-2-2-2-2-2-2-4-4-4-4-4-4-4-4--|
E |----------------------------------------|

Verse (optional bass line)

e |---------------------------------------------------------------|
B |---------------------------------------------------------------|
G |---------------------------------------------------------------|
D |---------------------------------------------------------------| (x2)
A |4-4-4-4-4-4-4-4-4-4-4-4-4-4-4-4-6-6-6-6-6-6-6-6-7-7-7-6-4-4-4--|
E |---------------------------------------------------------------| 

Chorus (optional bass line)

e |---------------------------------------------------------------------|
B |---------------------------------------------------------------------|
G |---------------------------------------------------------------------|
D |---------------------------------------------------------------------| (x2)
A |-4-4-4-4-4-4-6-4-7-7-7-7-7-7-9-7-9-9-9-9-9-9-9-9-11-11-11-11-9-9-9-9-|
E |---------------------------------------------------------------------|

Bridge 
e |----------------------------------------------|
B |----------------------------------------------|
G |----------------------------------------------|
D |----------------------------------------------| (x2)
A |-4-4-6-7-6-4-2-2-4---2-4-4-2-4-4-2-4-4-2--4-4-|
E |-------------------2--------------------------|

Lead Guitar

Starts after the first chorus

e |---------------------------------|
B |---------------------------------|
G |-6-6-6-6-6-6-6-6-6-6-6-6-6-6-6-6-|
D |-6-6-6-6-6-6-6-6-6-6-6-6-6-6-6-6-| (x2)
A |-4-4-4-4-4-4-4-4-4-4-4-4-4-4-4-4-|
E |---------------------------------|

Chorus (only 2nd and 3rd chorus)

e |----------------------------------------------------------------------------------|
B |----------------------------------------------------------------------------------|
G |-6-6-6-6-6-6-6-6-9-9-9-9-9-9-9-9-11-11-11-11-11-11-11-11-13-13-13-13-11-11-11-11--|
D |-6-6-6-6-6-6-6-6-9-9-9-9-9-9-9-9-11-11-11-11-11-11-11-11-13-13-13-13-11-11-11-11--| (x2)
A |-4-4-4-4-4-4-4-4-7-7-7-7-7-7-7-7-9--9--9--9--9--9--9--9--11-11-11-11-9--9--9--9---|
E |----------------------------------------------------------------------------------|

Bridge

e |--------------------------------------------------------------------------|
B |--------------------------------------------------------------------------|
G |-6-6-6-6-8-9-8-8-8-6-4-4-4-4-6---4-6-6-6-6-4-6-6-6-6-4-6-6-6-6-4-6-6-6-6--|
D |-6-6-6-6-8-9-8-8-8-6-4-4-4-4-6-4-4-6-6-6-6-4-6-6-6-6-4-6-6-6-6-4-6-6-6-6--|
A |-4-4-4-4-6-7-6-6-6-4-2-2-2-2-4-4-2-4-4-4-4-2-4-4-4-4-2-4-4-4-4-2-4-4-4-4--|
E |-------------------------------2------------------------------------------|

Order
Intro  0:14-0:36
Verse  0:36-1:11
Chorus 1:11-1:28
Intro  1:28-1:38
Verse  1:38-1:55
Chorus 1:55-2:14
Bridge 2:14-2:32
Chorus 2:49-3:07
Intro  3:07-3:17
Tap to rate this tab
# A B C D E F G H I J K L M N O P Q R S T U V W X Y Z