Song name
# A B C D E F G H I J K L M N O P Q R S T U V W X Y Z

Linkin Park - Nobodys Listening tab

-----------------------------------------------------------------------------
		  Nobody's Listening - Linkin Park
-----------------------------------------------------------------------------
Tabbed by: Shifty
Email: av_shifty_lp@hotmail.com

Tuning: B, F#, B, E, G#, C# (Drop D, 1 and 1/2 steps down)
(You'll probably want baritone strings for this)

This is all palm muted, the guitar is only in the chorus.

C#|----------------------------------------------|
G#|----------------------------------------------|
E |----------------------------------------------|
B |-3-3-3--3--3--4-4--4-4--3-3-3--3--3--1-1--4-4-|
F#|-3-3-3--3--3--4-4--4-4--3-3-3--3--3--1-1--4-4-|
B |-3-3-3--3--3--4-4--4-4--3-3-3--3--3--1-1--4-4-|

An alternative would be on a 7 string:

E|----------------------------------------------|
B|----------------------------------------------|
G|----------------------------------------------|
D|----------------------------------------------|
A|-5-5-5--5--5--6-6--6-6--5-5-5--5--5--3-3--6-6-|
E|-5-5-5--5--5--6-6--6-6--5-5-5--5--5--3-3--6-6-|
B|-3-3-3--3--3--4-4--4-4--3-3-3--3--3--1-1--4-4-|
Tap to rate this tab
# A B C D E F G H I J K L M N O P Q R S T U V W X Y Z