Song name
# A B C D E F G H I J K L M N O P Q R S T U V W X Y Z

Linkin Park - Soundtrack tab

First tab for me and for this song! I tabbed the two guitars and the piano (transcribed 
for guitar) entirely by ear. Most of the stuff is just looped in different parts of the 
song, so it should be pretty easy to figure out the order of everything. Enjoy!

Soundtrack (Meteora Demo)

Tuning: Drop C

Intro/Verse/End (Guitar 1)

E ---------------------------------------------|
A ---------------------------------------------|
D ---------------------------------------------|
G ---2------------2----------------------------|
B -------1------------------(1)---(1)----------|
E ------------3---------3-------3--------------|

Intro/Verse (Guitar 2)

E -------------------------------------------|
A -------------------------------------------|
D -----------------3--3--3--3----------------|
G ---2--2--2--2------------------------------|
B -------------------------------------------|
E -------------------------------------------|

Verse Piano (Guitar 2) (Can be played on the frets themselves rather than between them)

E -------------------------------------------|
A -------------------------------------------|
D -------------------------------------------|
G -------------------------------------------|
B -------------------------------------------|
E --7--8--10--8----7--8--10--8---------------|

Bridge Piano (Guitar 2)

E -------------------------------------------|
A -------------------------------------------|
D -------------------------------------------|
G -------------------------------------------|
B -------------------------------------------|
E --5--7--8--10--12--5--7--8-----------------|



Chorus (Guitar 1)

E ----7--7--7--7--------3--3--3--3-------|
A ----7--7--7--7--------3--3--3--3-------|
D ----7--7--7--7--------3--3--3--3-------|
G ----9--9---------------5--5------------|
B ---------------------------------------|
E ---------------------------------------|

Bridge/End Chorus (Guitar 1)

E ----5--5--5--5--------3--3--3--3-------|
A ----5--5--5--5--------3--3--3--3-------|
D ----5--5--5--5--------3--3--3--3-------|
G ----7--7---------------5--5------------|
B ---------------------------------------|
E ---------------------------------------|
Tap to rate this tab
# A B C D E F G H I J K L M N O P Q R S T U V W X Y Z