Song name
# A B C D E F G H I J K L M N O P Q R S T U V W X Y Z

Linkin Park - Ominous tab

Guitar 1:

00:00-00:02:
-----------------------------------------|
-10--10--10--10-12-12-12-12-12-----------|
---9---9---9-----------------------------|
-----------------------------------------|
-----------------------------------------|
-----------------------------------------|

00:02-00:04
-----------------------------------------|
-8---8---8---8-12-12-12-12-12------------|
---9---9---9-----------------------------|
-----------------------------------------|
-----------------------------------------|
-----------------------------------------|

01:02-01:06 (x3) :
-----------------------------------------|
-10--10--10--10--10--10--10--10---10-----|
---10--10--10--10--10--10--10---9----9---|
-----------------------------------------|
-----------------------------------------|
-----------------------------------------|

Fourth time:
-----------------------------------------|
-10--10--10--10--10--10--10--8-10-8------|
---10--10--10--10--10--10--10------------|
-----------------------------------------|
-----------------------------------------|
-----------------------------------------|

02:04-02:23, 02:41-03:00
-----------------------------------------|
-12------12------12----------------------|
---12-10---12-10---10--------------------|
-----------------------------------------|
-----------------------------------------|
-----------------------------------------|

Guitar 2:

00:09-00:13
--------------------------------------------------------|
--------------------------------------------------------|
--------------------------------------------------------|
----7--7--7--7----9-9-9-9-------5--5--5--5----9-9-9-9---|
----7--7--7--7----9-9-9-9-------5--5--5--5----7-7-7-7---|
----5--5--5--5----7-7-7-7-------3--3--3--3----7-7-7-7---|
Tap to rate this tab
# A B C D E F G H I J K L M N O P Q R S T U V W X Y Z