Song name
# A B C D E F G H I J K L M N O P Q R S T U V W X Y Z

Linkin Park - Asbestos tab

Linkin Park
Asbestos (Minutes to Midnight Demo)
Tabbed by Mirk121

Guitar 1 (Distorted)
Guitar 2 (Distorted)

Intro

Guitar 1 & 2
-----------------------------| x4
-----------------------------|
-----------------------------|
-12-0---0-0-5-6-0---0-7-8-11-|
-12-0---0-0-5-6-0---0-7-8-11-|
-12-0---0-0-5-6-0---0-7-8-11-|

Verse

Guitar 1
-----------------------| x3
-----------------------|
-----------------------|
-12-0---5-6-0---7-8-11-|
-12-0---5-6-0---7-8-11-|
-12-0---5-6-0---7-8-11-|

Chorus

Guitar 1 & 2
-----------------------------------------------------------------------|
-----------------------------------------------------------------------|
-----------------------------------------------------------------------|
-0-0-0-0-0-0-0-0-0-3-3-3-3-3-3-3-3-3-0-0-0-0-0-0-0-0-0-8-8-8-8-5-5-7-7-|
-0-0-0-0-0-0-0-0-0-3-3-3-3-3-3-3-3-3-0-0-0-0-0-0-0-0-0-8-8-8-8-5-5-7-7-|
-0-0-0-0-0-0-0-0-0-3-3-3-3-3-3-3-3-3-0-0-0-0-0-0-0-0-0-8-8-8-8-5-5-7-7-|


-----------------------------------------------------------------------|
-----------------------------------------------------------------------|
-----------------------------------------------------------------------|
-0-0-0-0-0-0-0-0-0-3-3-3-3-3-3-3-3-3-0-0-0-0-0-0-0-0-0-8-8-8-8-8-8-8-8-|
-0-0-0-0-0-0-0-0-0-3-3-3-3-3-3-3-3-3-0-0-0-0-0-0-0-0-0-8-8-8-8-8-8-8-8-|
-0-0-0-0-0-0-0-0-0-3-3-3-3-3-3-3-3-3-0-0-0-0-0-0-0-0-0-8-8-8-8-8-8-8-8-|

--------------------|
--------------------|
--------------------|
-8-8-8-8-8-8-7-8-11-|
-8-8-8-8-8-8-7-8-11-|
-8-8-8-8-8-8-7-8-11-|

Pre-Verse

Guitar 1 & 2
-----------------------------| x1
-----------------------------|
-----------------------------|
-12-0---0-0-5-6-0---0-7-8-11-|
-12-0---0-0-5-6-0---0-7-8-11-|
-12-0---0-0-5-6-0---0-7-8-11-|

Verse

Guitar 1
-----------------------| x3
-----------------------|
-----------------------|
-12-0---5-6-0---7-8-11-|
-12-0---5-6-0---7-8-11-|
-12-0---5-6-0---7-8-11-|

Outro

Guitar 1 & 2
-----------------------------------------------------------------------|
-----------------------------------------------------------------------|
-----------------------------------------------------------------------|
-0-0-0-0-0-0-0-0-0-3-3-3-3-3-3-3-3-3-0-0-0-0-0-0-0-0-0-8-8-8-8-5-5-7-7-|
-0-0-0-0-0-0-0-0-0-3-3-3-3-3-3-3-3-3-0-0-0-0-0-0-0-0-0-8-8-8-8-5-5-7-7-|
-0-0-0-0-0-0-0-0-0-3-3-3-3-3-3-3-3-3-0-0-0-0-0-0-0-0-0-8-8-8-8-5-5-7-7-|


-----------------------------------------------------------------------|
-----------------------------------------------------------------------|
-----------------------------------------------------------------------|
-0-0-0-0-0-0-0-0-0-3-3-3-3-3-3-3-3-3-0-0-0-0-0-0-0-0-0-8-8-8-8-8-8-8-8-|
-0-0-0-0-0-0-0-0-0-3-3-3-3-3-3-3-3-3-0-0-0-0-0-0-0-0-0-8-8-8-8-8-8-8-8-|
-0-0-0-0-0-0-0-0-0-3-3-3-3-3-3-3-3-3-0-0-0-0-0-0-0-0-0-8-8-8-8-8-8-8-8-|

--------------------|
--------------------|
--------------------|
-8-8-8-8-8-8-7-8-11-|
-8-8-8-8-8-8-7-8-11-|
-8-8-8-8-8-8-7-8-11-|
Tap to rate this tab
# A B C D E F G H I J K L M N O P Q R S T U V W X Y Z