Song name
# A B C D E F G H I J K L M N O P Q R S T U V W X Y Z

Linkin Park - Castle Of Glass tab

Linkin park castle of glass Electric guitar part.

0:14
e--------------------------|
B--------------------------|
G--------------------------| X3
D--------------------------|
A--4-4-6-7-6-4-22-4--------|
E-------------------2-2-4--|

0:27
e----------------------------------|
B----------------------------------|
G----------------------------------|
D----------------------------------|
A----------------------------------|
E-5-5-55-5-5-7-7-77-7-7-9--9--9--9-|

1:27
e------------------------------------|
B------------------------------------|
G--6-66-88-9-99-88-66-4-44-6---------|
D--x-xx-xx-x-xx-xx-xx-x-xx-x-4-44-6--| X2
A--4-44-66-7-77-66-44-2-22-4-x-xx-x--|
E----------------------------2-22-4--|

1:38
e---------------------------------|
B---------------------------------|
G---------------------------------|
D---------------------------------| X2
A-7-77-7-7-7-7-7-7-77-7-7-7-7-7---|
E-5-55-5-5-5-5-5-5-55-5-5-5-5-5---|

1:47
e---------------------------------|
B---------------------------------|
G---------------------------------|
D---------------------------------|
A-5-55-5-5-5-5-5-5-55-5-5-5-5-5---|
E-3-33-3-3-3-3-3-3-33-3-3-3-3-3---|

1:52
e---------------------------------|
B---------------------------------|
G---------------------------------|
D---------------------------------|
A-7-77-7-7-7-7-7-7-77-7-7-7-7-7---|
E-5-55-5-5-5-5-5-5-55-5-5-5-5-5---|

1:56
e-----------------------------------------------------------------------|
B-----------------------------------------------------------------------|
G-----------------------------------------------------------------------|
D-10-10-1010-10-10-101010-5-5-55-5-5-555--------------------------------| X2
A-8--8--8-8--8--8--8-8-8--3-3-33-3-3-333-5-5-55-5-5-555-7-7-77-7-7-777--|
E----------------------------------------3-3-33-3-3-333-5-5-55-5-5-555--|

2:14
e--------------------------------------------------------------------|
B--------------------------------------------------------------------|
G--6-66-88-9-99-88-66-4-44-6--------6-66-44-6-66-44-6-66-44-6-66-44--|
D--x-xx-xx-x-xx-xx-xx-x-xx-x-4-44-6-x-xx-xx-x-xx-xx-x-xx-xx-x-xx-xx--| X2
A--4-44-66-7-77-66-44-2-22-4-x-xx-x-4-44-22-4-44-22-4-44-22-4-44-22--|
E----------------------------2-22-4----------------------------------|

2:50
e-----------------------------------------------------------------------|
B-----------------------------------------------------------------------|
G-----------------------------------------------------------------------|
D-10-10-1010-10-10-101010-5-5-55-5-5-555--------------------------------| X2
A-8--8--8-8--8--8--8-8-8--3-3-33-3-3-333-5-5-55-5-5-555-7-7-77-7-7-777--|
E----------------------------------------3-3-33-3-3-333-5-5-55-5-5-555--|

3:07
e------------------------------------|
B------------------------------------|
G--6-66-88-9-99-88-66-4-44-6---------|
D--x-xx-xx-x-xx-xx-xx-x-xx-x-4-44-6--| X2
A--4-44-66-7-77-66-44-2-22-4-x-xx-x--|
E----------------------------2-22-4--|


All Feedback Aprreciated
Tap to rate this tab
# A B C D E F G H I J K L M N O P Q R S T U V W X Y Z