Song name
# A B C D E F G H I J K L M N O P Q R S T U V W X Y Z

Linkin Park - Nobodys Listening tab

The palm-mute on this song is extraordinary. The notes can barely be identified is so 
distorted. Every chord is palm-muted.

Chorus
|-----------------------------------------------------------------|
|-----------------------------------------------------------------|
|-----------------------------------------------------------------|
|-3---3-----3-----3---------------4---4---------4-----4-----------|
|-3---3-----3-----3---------------4---4---------4-----4-----------|
|-3---3-----3-----3---------------4---4---------4-----4-----------|

|-----------------------------------------------------------------|
|-----------------------------------------------------------------|
|-----------------------------------------------------------------|
|-3---3-----3-----3---------------1---1---------4-----4-----------|
|-3---3-----3-----3---------------1---1---------4-----4-----------|
|-3---3-----3-----3---------------1---1---------4-----4-----------|

|-----------------------------------------------------------------|
|-----------------------------------------------------------------|
|-----------------------------------------------------------------|
|-3---3-----3-----3---------------4---4---------4-----4-----------|
|-3---3-----3-----3---------------4---4---------4-----4-----------|
|-3---3-----3-----3---------------4---4---------4-----4-----------|

|-----------------------------------------------------------------|
|-----------------------------------------------------------------|
|-----------------------------------------------------------------|
|-3---3-----3-----3---------------1---1---------4-----4-----------|
|-3---3-----3-----3---------------1---1---------4-----4-----------|
|-3---3-----3-----3---------------1---1---------4-----4-----------|


Chorus
|-----------------------------------------------------------------|
|-----------------------------------------------------------------|
|-----------------------------------------------------------------|
|-3---3-----3-----3---------------4---4---------4-----4-----------|
|-3---3-----3-----3---------------4---4---------4-----4-----------|
|-3---3-----3-----3---------------4---4---------4-----4-----------|

|-----------------------------------------------------------------|
|-----------------------------------------------------------------|
|-----------------------------------------------------------------|
|-3---3-----3-----3---------------1---1---------4-----4-----------|
|-3---3-----3-----3---------------1---1---------4-----4-----------|
|-3---3-----3-----3---------------1---1---------4-----4-----------|

|-----------------------------------------------------------------|
|-----------------------------------------------------------------|
|-----------------------------------------------------------------|
|-3---3-----3-----3---------------4---4---------4-----4-----------|
|-3---3-----3-----3---------------4---4---------4-----4-----------|
|-3---3-----3-----3---------------4---4---------4-----4-----------|

|-----------------------------------------------------------------|
|-----------------------------------------------------------------|
|-----------------------------------------------------------------|
|-3---3-----3-----3---------------1---1---------4-----4-----------|
|-3---3-----3-----3---------------1---1---------4-----4-----------|
|-3---3-----3-----3---------------1---1---------4-----4-----------|


Final Chorus
|-----------------------------------------------------------------|
|-----------------------------------------------------------------|
|-----------------------------------------------------------------|
|-3---3-----3-----3-----------------------------4-----4-----------|
|-3---3-----3-----3-----------------------------4-----4-----------|
|-3---3-----3-----3-----------------------------4-----4-----------|

|-----------------------------------------------------------------|
|-----------------------------------------------------------------|
|-----------------------------------------------------------------|
|-3---3-----3-----3-----------------------------4-----4-----------|
|-3---3-----3-----3-----------------------------4-----4-----------|
|-3---3-----3-----3-----------------------------4-----4-----------|

|-----------------------------------------------------------------|
|-----------------------------------------------------------------|
|-----------------------------------------------------------------|
|-3---3-----3-----3-----------------------------4-----4-----------|
|-3---3-----3-----3-----------------------------4-----4-----------|
|-3---3-----3-----3-----------------------------4-----4-----------|

|-----------------------------------------------------------------|
|-----------------------------------------------------------------|
|-----------------------------------------------------------------|
|-3---3-----3-----3-----------------------------4-----4-----------|
|-3---3-----3-----3-----------------------------4-----4-----------|
|-3---3-----3-----3-----------------------------4-----4-----------|

Outro
|-----------------------------------------------------------------|
|-----------------------------------------------------------------|
|-----------------------------------------------------------------|
|-3---3-----3-----3-----------------------------4-----4-----------|
|-3---3-----3-----3-----------------------------4-----4-----------|
|-3---3-----3-----3-----------------------------4-----4-----------|

|-----------------------------------------------------------------|
|-----------------------------------------------------------------|
|-----------------------------------------------------------------|
|-3---3-----3-----3-----------------------------4-----4-----------|
|-3---3-----3-----3-----------------------------4-----4-----------|
|-3---3-----3-----3-----------------------------4-----4-----------|

|-----------------------------------------------------------------|
|-----------------------------------------------------------------|
|-----------------------------------------------------------------|
|-3---3-----3-----3-----------------------------4-----4-----------|
|-3---3-----3-----3-----------------------------4-----4-----------|
|-3---3-----3-----3-----------------------------4-----4-----------|

|-----------------------------------------------------------------|
|-----------------------------------------------------------------|
|-----------------------------------------------------------------|
|-3---3-----3-----3-----------------------------4-----4-----------|
|-3---3-----3-----3-----------------------------4-----4-----------|
|-3---3-----3-----3-----------------------------4-----4-----------|
Tap to rate this tab
 
# A B C D E F G H I J K L M N O P Q R S T U V W X Y Z