Song name
# A B C D E F G H I J K L M N O P Q R S T U V W X Y Z

Linkin Park - The Messenger tab

I have not found a single tab in which someone has realized that the high E is 
muted the entire song.

Intro
|-------------------------------------------------------------------------------------------------|
|-3-----------3-----3--3--3-----------3-----3--3--3-----------3-----3--3--3-----------3-----3--3--|
|-0-----------0-----0--0--2-----------2-----2--2--0-----------0-----0--0--0-----------0-----0--0--|
|-0-----------0-----0--0--0-----------0-----0--0--2-----------2-----2--2--2-----------2-----2--2--|
|-2-----------2-----2--2-(0)---------(0)---(0)(0)-2-----------2-----2--2--3-----------3-----3--3--|
|-3-----------3-----3--3--------------------------0-----------0-----0--0--------------------------|

|-------------------------------------------------------------------------------------------------|
|-3-----------3-----3--3--3-----------3-----3--3--3-----------3-----3--3--3-----------3-----3--3--|
|-0-----------0-----0--0--2-----------2-----2--2--0-----------0-----0--0--0-----------0-----0--0--|
|-0-----------0-----0--0--0-----------0-----0--0--2-----------2-----2--2--2-----------2-----2--2--|
|-2-----------2-----2--2-(0)---------(0)---(0)(0)-3-----------3-----3--3--3-----------3-----3--3--|
|-3-----------3-----3--3--------------------------------------------------------------------------|

First Verse
|-------------------------------------------------------------------------------------------------|
|-3-----------3-----3--3--3-----------3-----3--3--3-----------3-----3--3--3-----------3-----3--3--|
|-0-----------0-----0--0--2-----------2-----2--2--0-----------0-----0--0--0-----------0-----0--0--|
|-0-----------0-----0--0--0-----------0-----0--0--2-----------2-----2--2--2-----------2-----2--2--|
|-2-----------2-----2--2-(0)---------(0)---(0)(0)-2-----------2-----2--2--3-----------3-----3--3--|
|-3-----------3-----3--3--------------------------0-----------0-----0--0--------------------------|

|-------------------------------------------------------------------------------------------------|
|-3-----------3-----3--3--3-----------3-----3--3--3-----------3-----3--3--3-----------3-----3--3--|
|-0-----------0-----0--0--2-----------2-----2--2--0-----------0-----0--0--0-----------0-----0--0--|
|-0-----------0-----0--0--0-----------0-----0--0--2-----------2-----2--2--2-----------2-----2--2--|
|-2-----------2-----2--2-(0)---------(0)---(0)(0)-3-----------3-----3--3--3----(3)----3-----3--3--|
|-3-----------3-----3--3--------------------------------------------------------------------------|

|-------------------------------------------------------------------------------------------------|
|-3-----------3-----3--3--3-----------3-----3--3--3-----------3-----3--3--3-----------3-----3--3--|
|-0-----------0-----0--0--2-----------2-----2--2--0-----------0-----0--0--0-----------0-----0--0--|
|-0-----------0-----0--0--0-----------0-----0--0--2-----------2-----2--2--2-----------2-----2--2--|
|-2-----------2-----2--2-(0)---------(0)---(0)(0)-2-----------2-----2--2--3-----------3-----3--3--|
|-3-----------3-----3--3--------------------------0-----------0-----0--0--------------------------|

|-------------------------------------------------------------------------------------------------|
|-3-----------3-----3--3--3-----------3-----3--3--3-----------3-----3--3--3-----------3-----3--3--|
|-0-----------0-----0--0--2-----------2-----2--2--0-----------0-----0--0--0-----------0-----0--0--|
|-0-----------0-----0--0--0-----------0-----0--0--2-----------2-----2--2--2----(2)----2-----2--2--|
|-2-----------2-----2--2-(0)---------(0)---(0)(0)-3-----------3-----3--3--3-----3-----3-----3--3--|
|-3-----------3-----3--3--------------------------------------------------------------------------|

Chorus
|-------------------------------------------------------------------------------------------------|
|-3-----------3-----3--3--3-----------3-----3--3--3-----------3-----3--3--3-----------3-----3--3--|
|-0-----------0-----0--0--2-----------2-----2--2--0-----------0-----0--0--0-----------0-----0--0--|
|-0-----------0-----0--0--0-----------0-----0--0--2-----------2-----2--2--2-----------2-----2--2--|
|-2-----------2-----2--2-(0)---------(0)---(0)(0)-2-----------2-----2--2--3-----------3-----3--3--|
|-3-----------3-----3--3--------------------------0-----------0-----0--0--------------------------|

|-------------------------------------------------------------------------------------------------|
|-3-----------3-----3--3--3-----------3-----3--3--3-----------3-----3--3--3-----------3-----3--3--|
|-0-----------0-----0--0--2-----------2-----2--2--0-----------0-----0--0--0-----------0-----0--0--|
|-0-----------0-----0--0--0-----------0-----0--0--2-----------2-----2--2--2----(2)----2-----2--2--|
|-2-----------2-----2--2-(0)---------(0)---(0)(0)-3-----------3-----3--3--3-----3-----3-----3--3--|
|-3-----------3-----3--3--------------------------------------------------------------------------|

Piano Break
|-------------------------------------------------------------------------------------------------|
|-3-----------3-----3--3--3-----------3-----3--3--3-----------3-----3--3--3-----------3-----3--3--|
|-0-----------0-----0--0--2-----------2-----2--2--0-----------0-----0--0--0-----------0-----0--0--|
|-0-----------0-----0--0--0-----------0-----0--0--2-----------2-----2--2--2-----------2-----2--2--|
|-2-----------2-----2--2-(0)---------(0)---(0)(0)-2-----------2-----2--2--3-----------3-----3--3--|
|-3-----------3-----3--3--------------------------0-----------0-----0--0--------------------------|

|-------------------------------------------------------------------------------------------------|
|-3-----------3-----3--3--3-----------3-----3--3--3-----------3-----3--3--3-----------3-----3--3--|
|-0-----------0-----0--0--2-----------2-----2--2--0-----------0-----0--0--0-----------0-----0--0--|
|-0-----------0-----0--0--0-----------0-----0--0--2-----------2-----2--2--2-----2-----2-----2--2--|
|-2-----------2-----2--2-(0)---------(0)---(0)(0)-3-----------3-----3--3--3-----3-----3-----3--3--|
|-3-----------3-----3--3--------------------------------------------------------------------------|

2nd Verse
|-------------------------------------------------------------------------------------------------|
|-3-----------3-----3--3--3-----------3-----3--3--3-----------3-----3--3--3-----------3-----3--3--|
|-0-----------0-----0--0--2-----------2-----2--2--0-----------0-----0--0--0-----------0-----0--0--|
|-0-----------0-----0--0--0-----------0-----0--0--2-----------2-----2--2--2-----------2-----2--2--|
|-2-----------2-----2--2-(0)---------(0)---(0)(0)-2-----------2-----2--2--3-----------3-----3--3--|
|-3-----------3-----3--3--------------------------0-----------0-----0--0--------------------------|

|-------------------------------------------------------------------------------------------------|
|-3-----------3-----3--3--3-----------3-----3--3--3-----------3-----3--3--3-----------3-----3--3--|
|-0-----------0-----0--0--2-----------2-----2--2--0-----------0-----0--0--0----(0)----0-----0--0--|
|-0-----------0-----0--0--0-----------0-----0--0--2-----------2-----2--2--2-----2-----2-----2--2--|
|-2-----------2-----2--2-(0)---------(0)---(0)(0)-3-----------3-----3--3--3-----3-----3-----3--3--|
|-3-----------3-----3--3--------------------------------------------------------------------------|

|-------------------------------------------------------------------------------------------------|
|-3-----------3-----3--3--3-----------3-----3--3--3-----------3-----3--3--3-----------3-----3--3--|
|-0-----------0-----0--0--2-----------2-----2--2--0-----------0-----0--0--0-----------0-----0--0--|
|-0-----------0-----0--0--0-----------0-----0--0--2-----------2-----2--2--2-----------2-----2--2--|
|-2-----------2-----2--2-(0)---------(0)---(0)(0)-2-----------2-----2--2--3-----------3-----3--3--|
|-3-----------3-----3--3--------------------------0-----------0-----0--0--------------------------|

|-------------------------------------------------------------------------------------------------|
|-3-----------3-----3--3--3-----------3-----3--3--3-----------3-----3--3--3-----------3-----3--3--|
|-0-----------0-----0--0--2-----------2-----2--2--0-----------0-----0--0--0-----------0-----0--0--|
|-0-----------0-----0--0--0-----------0-----0--0--2-----------2-----2--2--2-----2-----2-----2--2--|
|-2-----------2-----2--2-(0)---------(0)---(0)(0)-3-----------3-----3--3--3-----3-----3-----3--3--|
|-3-----------3-----3--3--------------------------------------------------------------------------|

Final Chorus
|-------------------------------------------------------------------------------------------------|
|-3-----------3-----3--3--3-----------3-----3--3--3-----------3-----3--3--3-----------3-----3--3--|
|-0-----------0-----0--0--2-----------2-----2--2--0-----------0-----0--0--0-----------0-----0--0--|
|-0-----------0-----0--0--0-----------0-----0--0--2-----------2-----2--2--2-----------2-----2--2--|
|-2-----------2-----2--2-(0)---------(0)---(0)(0)-2-----------2-----2--2--3-----------3-----3--3--|
|-3-----------3-----3--3--------------------------0-----------0-----0--0--------------------------|

|-------------------------------------------------------------------------------------------------|
|-3-----------3-----3--3--3-----------3-----3--3--3-----------3-----3--3--3-----------3-----3--3--|
|-0-----------0-----0--0--2-----------2-----2--2--0-----------0-----0--0--0----(0)----0-----0--0--|
|-0-----------0-----0--0--0-----------0-----0--0--2-----------2-----2--2--2-----2-----2-----2--2--|
|-2-----------2-----2--2-(0)---------(0)---(0)(0)-3-----------3-----3--3--3-----3-----3-----3--3--|
|-3-----------3-----3--3--------------------------------------------------------------------------|

|-------------------------------------------------------------------------------------------------|
|-3-----------3-----3--3--3-----------3-----3--3--3-----------3-----3--3--3-----------3-----3--3--|
|-0-----------0-----0--0--2-----------2-----2--2--0-----------0-----0--0--0-----------0-----0--0--|
|-0-----------0-----0--0--0-----------0-----0--0--2-----------2-----2--2--2-----------2-----2--2--|
|-2-----------2-----2--2-(0)---------(0)---(0)(0)-2-----------2-----2--2--3-----------3-----3--3--|
|-3-----------3-----3--3--------------------------0-----------0-----0--0--------------------------|

|-------------------------------------------------------------------------------------------------|
|-3-----------3-----3--3--3-----------3-----3--3--3-----------3-----3--3--3-----3-----3-----3--3--|
|-0-----------0-----0--0--2-----------2-----2--2--0-----------0-----0--0--0-----0-----0-----0--0--|
|-0-----------0-----0--0--0-----------0-----0--0--2-----------2-----2--2--2-----2-----2-----2--2--|
|-2-----------2-----2--2-(0)---------(0)---(0)(0)-3-----------3-----3--3--3-----3-----3-----3--3--|
|-3-----------3-----3--3--------------------------------------------------------------------------|

Outro
|-------------------------------------------------------------------------------------------------|
|-3-----3-----3-----3--3--3-----3-----3-----3--3--3-----3-----3-----3--3--3-----3-----3-----3--3--|
|-0-----0-----0-----0--0--2-----2-----2-----2--2--0-----0-----0-----0--0--0-----0-----0-----0--0--|
|-0-----0-----0-----0--0--0-----0-----0-----0--0--2-----2-----2-----2--2--2-----2-----2-----2--2--|
|-2-----2-----2-----2--2-(0)---(0)---(0)---(0)(0)-2-----2-----2-----2--2--3-----3-----3-----3--3--|
|-3-----3-----3-----3--3--------------------------0-----0-----0-----0--0--------------------------|

|-------------------------------------------------------------------------------------------------|
|-3-----3-----3-----3--3--3-----3-----3-----3--3--3-----3-----3-----3--3--3-----3-----3-----3--3--|
|-0-----0-----0-----0--0--2-----2-----2-----2--2--0-----0-----0-----0--0--0-----0-----0-----0--0--|
|-0-----0-----0-----0--0--0-----0-----0-----0--0--2-----2-----2-----2--2--2-----2-----2-----2--2--|
|-2-----2-----2-----2--2-(0)---(0)---(0)---(0)(0)-3-----3-----3-----3--3--3-----3-----3-----3--3--|
|-3-----3-----3-----3--3--------------------------------------------------------------------------|

|-------------------------------------------------------------------------------------------------|
|-3-----3-----3-----3--3--3-----3-----3-----3--3--3-----3-----3-----3--3--3-----3-----3-----3--3--|
|-0-----0-----0-----0--0--2-----2-----2-----2--2--0-----0-----0-----0--0--0-----0-----0-----0--0--|
|-0-----0-----0-----0--0--0-----0-----0-----0--0--2-----2-----2-----2--2--2-----2-----2-----2--2--|
|-2-----2-----2-----2--2-(0)---(0)---(0)---(0)(0)-2-----2-----2-----2--2--3-----3-----3-----3--3--|
|-3-----3-----3-----3--3--------------------------0-----0-----0-----0--0--------------------------|

|-------------------------------------------------------------------------------------------------|
|-3-----3-----3-----3--3--3-----3-----3-----3--3--3-----3-----3-----3--3--3-----3-----3-----3--3--|
|-0-----0-----0-----0--0--2-----2-----2-----2--2--0-----0-----0-----0--0--0-----0-----0-----0--0--|
|-0-----0-----0-----0--0--0-----0-----0-----0--0--2-----2-----2-----2--2--2-----2-----2-----2--2--|
|-2-----2-----2-----2--2-(0)---(0)---(0)---(0)(0)-3-----3-----3-----3--3--3-----3-----3-----3--3--|
|-3-----3-----3-----3--3--------------------------------------------------------------------------|

Ending
|-------------------------------------------------------------------------------------------------|
|-3~----------------------------------------------------------------------------------------------|
|-0~----------------------------------------------------------------------------------------------|
|-0~----------------------------------------------------------------------------------------------|
|-2~----------------------------------------------------------------------------------------------|
|-3~----------------------------------------------------------------------------------------------|
Tap to rate this tab
# A B C D E F G H I J K L M N O P Q R S T U V W X Y Z