Song name
# A B C D E F G H I J K L M N O P Q R S T U V W X Y Z

Linkin Park - New Divide tab

Tabbed by: StephenD830

This is the guitar tablature for both the lead guitar and the singing.

This is my first tab but I am sure that it is accurate to the song.

E||-----------------------------------------------------|
B||--------13----16----13----------13----16----13-------|
G||--13-------------15-------13-------------15----------|
D||-----15----15----------15----15----15----------15----|
A||-----------------------------------------------------|
E||-----------------------------------------------------|

E||-----------------------------------------------------|
B||--------13----16----13----------13----16----13-------|
G||--13-------------15-------13-------------15----------|
D||-----15----15----------15----15----15----------15----|
A||-----------------------------------------------------|
E||-----------------------------------------------------|

E||-----11-131313-13----13-11-11----11------------------|
B||--13--------------13----------13----13---------------|
G||-----------------------------------------------------|
D||-----------------------------------------------------|
A||-----------------------------------------------------|
E||-----------------------------------------------------|

E||-----11-131313-13----13-11-11----11------------------|
B||--13--------------13----------13---------------------|
G||-----------------------------------------------------|
D||-----------------------------------------------------|
A||-----------------------------------------------------|
E||-----------------------------------------------------|

E||-----11-131313-13----13-11-11----11------------------|
B||--13--------------13----------13----13---------------|
G||-----------------------------------------------------|
D||-----------------------------------------------------|
A||-----------------------------------------------------|
E||-----------------------------------------------------|

E||-----------------------------------------------------|
B||--11-13-13-11-11----11---11-13-13-11-11----11--------|
G||-----------------13---------------------13-----------|
D||-----------------------------------------------------|
A||-----------------------------------------------------|
E||-----------------------------------------------------|

E||-----16-15-16-13-13-16-16-15-13-15-15-15-13-13-------|
B||--13-------------------------------------------------|
G||-----------------------------------------------------|
D||-----------------------------------------------------|
A||-----------------------------------------------------|
E||-----------------------------------------------------|

E||--13-15-16-13-13-16-16-16-18-18---16-----------------|
B||-----------------------------------------------------|
G||-----------------------------------------------------|
D||-----------------------------------------------------|
A||-----------------------------------------------------|
E||-----------------------------------------------------|

E||--16-15-16-13-13-16-16-15-13-15-15-15-1313-13--------|
B||-----------------------------------------------------|
G||-----------------------------------------------------|
D||-----------------------------------------------------|
A||-----------------------------------------------------|
E||-----------------------------------------------------|

E||--13-15-16-15-13-16-1515-1315----16-15-13-11-13------|
B||------------------------------13---------------------|
G||-----------------------------------------------------|
D||-----------------------------------------------------|
A||-----------------------------------------------------|
E||-----------------------------------------------------|

E||-----------------------------------------------------|
B||--------13----16----13-------------------------------|
G||--13-------------15----------------------------------|
D||-----15----15----------15----------------------------|
A||-----------------------------------------------------|
E||-----------------------------------------------------|

E||-----11-131313-13----13-11-11----11------------------|
B||--13--------------13----------13----13---------------|
G||-----------------------------------------------------|
D||-----------------------------------------------------|
A||-----------------------------------------------------|
E||-----------------------------------------------------|

E||-----11-131313-13----13-11-11----11------------------|
B||--13--------------13----------13---------------------|
G||-----------------------------------------------------|
D||-----------------------------------------------------|
A||-----------------------------------------------------|
E||-----------------------------------------------------|

E||-----11-131313-13----13-11-11----11------------------|
B||--13--------------13----------13----13---------------|
G||-----------------------------------------------------|
D||-----------------------------------------------------|
A||-----------------------------------------------------|
E||-----------------------------------------------------|

E||-----------------------------------------------------|
B||--11-13-13-11-11----11---11-13-13-11-11----11--------|
G||-----------------13---------------------13-----------|
D||-----------------------------------------------------|
A||-----------------------------------------------------|
E||-----------------------------------------------------|

E||-----16-15-16-13-13-16-16-15-13-15-15-15-13-13-------|
B||--13-------------------------------------------------|
G||-----------------------------------------------------|
D||-----------------------------------------------------|
A||-----------------------------------------------------|
E||-----------------------------------------------------|

E||--13-15-16-13-13-16-16-16-18-18---16-----------------|
B||-----------------------------------------------------|
G||-----------------------------------------------------|
D||-----------------------------------------------------|
A||-----------------------------------------------------|
E||-----------------------------------------------------|

E||--16-15-16-13-13-16-16-15-13-15-15-15-1313-13--------|
B||-----------------------------------------------------|
G||-----------------------------------------------------|
D||-----------------------------------------------------|
A||-----------------------------------------------------|
E||-----------------------------------------------------|

E||--13-15-16-15-13-16-1515-1315----16-15-13-11-13------|
B||------------------------------13---------------------|
G||-----------------------------------------------------|
D||-----------------------------------------------------|
A||-----------------------------------------------------|
E||-----------------------------------------------------|

E||-----13-13-13----13-11-11----13-13-13--13-11-11------|
B||--13-------13-13----------13---------11--------------|
G||-----------------------------------------------------|
D||-----------------------------------------------------|
A||-----------------------------------------------------|
E||-----------------------------------------------------|

E||-----13-13-13----13-11-11----13-13-15-13-15-1313-----|
B||--13-------13-13----------13-------------------------|
G||-----------------------------------------------------|
D||-----------------------------------------------------|
A||-----------------------------------------------------|
E||-----------------------------------------------------|

E||-----13-13-13-11-11----11----13-13-11-11----11-------|
B||--13----------------13----13-------------13----------|
G||-----------------------------------------------------|
D||-----------------------------------------------------|
A||-----------------------------------------------------|
E||-----------------------------------------------------|

E||-----16-15-16-13-13-16-16-15-13-15-15-15-13-13-13----|
B||--13-------------------------------------------------|
G||-----------------------------------------------------|
D||-----------------------------------------------------|
A||-----------------------------------------------------|
E||-----------------------------------------------------|

E||--13-15-16-13-13-16-16-16-1818---16------------------|
B||-----------------------------------------------------|
G||-----------------------------------------------------|
D||-----------------------------------------------------|
A||-----------------------------------------------------|
E||-----------------------------------------------------|

E||--16-15-16-13-13-16-16-15-13-15-15-151315-1313-------|
B||-----------------------------------------------------|
G||-----------------------------------------------------|
D||-----------------------------------------------------|
A||-----------------------------------------------------|
E||-----------------------------------------------------|

E||--13-15-16-15-1316-1615-1315----16-15-13-11-13-------|
B||-----------------------------13----------------------|
G||-----------------------------------------------------|
D||-----------------------------------------------------|
A||-----------------------------------------------------|
E||-----------------------------------------------------|

E||-----16-15-13-11-13------16-15-13-11-13--------------|
B||--13------------------13-----------------------------|
G||-----------------------------------------------------|
D||-----------------------------------------------------|
A||-----------------------------------------------------|
E||-----------------------------------------------------|

E||-----------------------------------------------------|
B||--------13----16----13----------13----16----13-------|
G||--13-------------15-------13-------------15----------|
D||-----15----15----------15----15----15----------15----|
A||-----------------------------------------------------|
E||-----------------------------------------------------|
Tap to rate this tab
 
# A B C D E F G H I J K L M N O P Q R S T U V W X Y Z