Song name
# A B C D E F G H I J K L M N O P Q R S T U V W X Y Z

Linkin Park - What Ive Done tab

-------------------------------------------------------------------------------
                             SONG NAME - Band Name
-------------------------------------------------------------------------------
Tabbed by: GNU?
E-mail:u?

Tuning: e-a-d-g-b-e

This is the chords throught the song.

e|---------------------------------------------------------------------------|
B|---------------------------------------------------------------------------|
G|---------------------------------------------------------------------------|
D|----5-------8-------3------10----------------------------------------------|
A|----5-------8-------3------10----------------------------------------------|
E|----3-------6-------1------8-----------------------------------------------|

Play this in the refrain.
e|---------------------------------------------------------------------------|
B|---------------------------------------------------------------------------|
G|---------------------------------------------------------------------------|
D|---------------------------------------------------------------------------|
A|-13-13-13-13-13-13-12-12-13-13-13-13-13-13-15-15-12-12-12-12-12-12-12-12---|
E|---------------------------------------------------------------------------|

e|---------------------------------------------------------------------------|
B|---------------------------------------------------------------------------|
G|---------------------------------------------------------------------------|
D|---------------------------------------------------------------------------|
A|-10-10-10-10-10-10-10-12-12------------------------------------------------|
E|---------------------------------------------------------------------------|

e|---------------------------------------------------------------------------|
B|---------------------------------------------------------------------------|
G|---------------------------------------------------------------------------|
D|---------------------------------------------------------------------------|
A|-13-13-13-13-13-13-12-12-13-13-13-13-13-13-15-15-12-12-12-12-12-12-12-12---|
E|---------------------------------------------------------------------------|

e|---------------------------------------------------------------------------|
B|---------------------------------------------------------------------------|
G|---------------------------------------------------------------------------|
D|---------------------------------------------------------------------------|
A|-10-10-10-10-10-10-10-12-12-13---------------------------------------------|
E|---------------------------------------------------------------------------|

This is the 1. verse
e|---------------------------------------------------------------------------|
B|---------------------------------------------------------------------------|
G|---------------------------------------------------------------------------|
D|---------------------------------------------------------------------------|
A|-13-13-12-13---10-12-13--10-12-13--10-10-----------------------------------|
E|---------------------------------------------------------------------------|

e|---------------------------------------------------------------------------|
B|---------------------------------------------------------------------------|
G|---------------------------------------------------------------------------|
D|---------------------------------------------------------------------------|
A|-13-13-12-13---10-12-13--10-12-13--10-10-----------------------------------|
E|---------------------------------------------------------------------------|

e|---------------------------------------------------------------------------|
B|---------------------------------------------------------------------------|
G|---------------------------------------------------------------------------|
D|-12-12-10--8-8-8-8-8-8-8-8-10-10-10-10-12-12-12-12-10-10-10-10-10-10-17-15-|
A|---------------------------------------------------------------------------|
E|---------------------------------------------------------------------------|


This is the 2. verse

e|---------------------------------------------------------------------------|
B|---------------------------------------------------------------------------|
G|---------------------------------------------------------------------------|
D|---------------------------------------------------------------------------|
A|-13-13-12-13---10-12-13--10-12-13--10-10-----------------------------------|
E|---------------------------------------------------------------------------|

e|---------------------------------------------------------------------------|
B|---------------------------------------------------------------------------|
G|---------------------------------------------------------------------------|
D|---------------------------------------------------------------------------|
A|-13-13-12-13---10-12-13--10-12-13--15-15-----------------------------------|
E|---------------------------------------------------------------------------|

e|---------------------------------------------------------------------------|
B|---------------------------------------------------------------------------|
G|---------------------------------------------------------------------------|
D|-12-12-10--8-8-8-8-8-8-8-8-10-10-10-10-12-12-12-12-10-10-10-10-10-10-17-15-|
A|---------------------------------------------------------------------------|
E|---------------------------------------------------------------------------|

This is the solo.
e|---------------------------------------------------------------------------|
B|---------------------------------------------------------------------------|
G|-------------------12-15---------------------------------------------------|
D|-12-15-12-15-15-15---------------------------------------------------------|
A|---------------------------------------------------------------------------|
E|---------------------------------------------------------------------------|

e|---------------------------------------------------------------------------|
B|---------------------------------------------------------------------------|
G|-------------------12-14-12------------------------------------------------|
D|-12-15-12-15-15-15----------15---------------------------------------------|
A|---------------------------------------------------------------------------|
E|---------------------------------------------------------------------------|

e|---------------------------------------------------------------------------|
B|---------------------------------------------------------------------------|
G|-------------------12-15---------------------------------------------------|
D|-12-15-12-15-15-15---------------------------------------------------------|
A|---------------------------------------------------------------------------|
E|---------------------------------------------------------------------------|

e|---------------------------------------------------------------------------|
B|---------------------------------------------------------------------------|
G|-------------------12-14-12-------12---------------------------------------|
D|-12-15-12-15-15-15----------15-12----15------------------------------------|
A|---------------------------------------------------------------------------|
E|---------------------------------------------------------------------------|
This is everything you need to know to play the whole song. Good luck:)
************************************

| /   slide up
| \   slide down
| h   hammer-on
| p   pull-off
| ~   vibrato
| +   harmonic
| x   Mute note
| b   Bend
| pb  Pre-bend
| br  Bend release
| pbr Pre-bend release
| brb Bend release bend

************************************
Tap to rate this tab
 
# A B C D E F G H I J K L M N O P Q R S T U V W X Y Z