Song name
# A B C D E F G H I J K L M N O P Q R S T U V W X Y Z

Linkin Park - Runaway tab

Very simple song, sparse riffs.  Great heaviness, easy to play.
I noticed so many tabs that I never felt sounded right with just
plain power chords in Drop D.  This song is much heavier than it seems. 
Hope it is helpful!  I plan on tabbing the entire Hybrid Theory album 
with this level of accuracy and simplicity.  Not a hard album to play.

Quiet Intro: (this riff is also played in the final chorus after the bridge)
C#|-------------------------------------------------------------------|
G#|-------------------------------------------------------------------|
 E|--7----7--7-/10----10--10--10--------------------------------------|
 B|--7----7--7-/10----10--10--10----10----10--10-/12----12--12--xx----| x2
F#|--5----5--5-/8-----8---8---8-----8-----8---8--/10----10--10--xx----|
 B|---------------------------------8-----8---8--/10----10--10--xx----|

Heavy Intro/Chorus:
C#|-------------------------------------------------------------------|
G#|-------------------------------------------------------------------|
 E|-------------------------------------------------------------------|
 B|--0----0--0----3----3--3--3----10----10--10----12----12--12--12----| x2
F#|--0----0--0----3----3--3--3----8-----8---8-----10----10--10--10----|
 B|--0----0--0----3----3--3--3----8-----8---8-----10----10--10--10----|

Bridge: (the dots below signify palm-muting)
C#|-------------------------------------------------------------------|
G#|-------------------------------------------------------------------| 
 E|-------------------------------------------------------------------|
 B|--0----0----1----0-0----0-0----1~----------------------------------|
F#|--0----0----1----0-0----0-0----1~----------------------------------|
 B|--0----0----1----0-0----0-0----1~----------------------------------|
     .    .         . .    . .

There you go, the whole song!  Thank you for using this tab!
Hope to make more in the future!
Tap to rate this tab
# A B C D E F G H I J K L M N O P Q R S T U V W X Y Z