Song name
# A B C D E F G H I J K L M N O P Q R S T U V W X Y Z

Linkin Park - Cumulus tab

-------------------------------------------------------------------------------
                             Cumulus - Linkin Park
-------------------------------------------------------------------------------
Tabbed by:Windchill96
E-mail:jackthomas253@gmail,com

Tuning: Drop C#

(Plays in the pre-chorus for verse 1 and in all of verse 2)

C#|----18----18----14----14----16----16----18----18----14----14----16----16-------------|
G#|-------14----14----14----14----14----14----14----14----14----14----14----14----------|
F#|-------------------------------------------------------------------------------------|
C#|-------------------------------------------------------------------------------------|
G#|-------------------------------------------------------------------------------------|
C#|-------------------------------------------------------------------------------------|

(Chorus)

C#|-------------------------------------------------------------------------------------|
G#|-------------------------------------------------------------------------------------|
F#|-----------------------9-8-9-11-9-----------------------9-8-9-11-13------------------|
C#|----0-0-0-0-0-0-0-0------------------7-7-7-7-7-7-7-7---------------------------------|
G#|----0-0-0-0-0-0-0-0----7-6-7--9-7----7-7-7-7-7-7-7-7----7-6-7--9-11------------------|
C#|----0-0-0-0-0-0-0-0------------------7-7-7-7-7-7-7-7---------------------------------|

(Bridge)

C#|-------------------------------------------------------------------------------------|
G#|-------------------------------------------------------------------------------------|
F#|-------------------------------------------------------------------------------------|
C#|----7-7-7-7-7-7-7-7-6-6-6-6-6-6-6-6-11-11-11-11-11-11-11-11-10-10-10-10-10-10-10-10--|
G#|----7-7-7-7-7-7-7-7-6-6-6-6-6-6-6-6-11-11-11-11-11-11-11-11-10-10-10-10-10-10-10-10--|
C#|----7-7-7-7-7-7-7-7-6-6-6-6-6-6-6-6-11-11-11-11-11-11-11-11-10-10-10-10-10-10-10-10--|

C#|-------------------------------------------------------------------------------------|
G#|-------------------------------------------------------------------------------------|
F#|-------------------------------------------------------------------------------------|
C#|----7-7-7-7-7-7-7-7-6-6-6-6-6-6-6-6-11-11-11-11-11-11-11-11-10-10-10-10-10-10-10-10--|
G#|----7-7-7-7-7-7-7-7-6-6-6-6-6-6-6-6-11-11-11-11-11-11-11-11-10-10-10-10-10-10-10-10--|
C#|----7-7-7-7-7-7-7-7-6-6-6-6-6-6-6-6-11-11-11-11-11-11-11-11-10-10-10-10-10-10-10-10--|

C#|-------------------------------------------------------------------------------------|
G#|-------------------------------------------------------------------------------------|
F#|-------------------------------------------------------------------------------------|
C#|----0-0-0-0-0-0-0-7-7-6-7-7-7-7-7-0-0-0-0-0-0-0-0------------------------------------|
G#|----0-0-0-0-0-0-0-7-7-6-7-7-7-7-7-0-0-0-0-0-0-0-0------------------------------------|
C#|----0-0-0-0-0-0-0-0-0-0-0-0-0-0-0-0-0-0-0-0-0-0-0------------------------------------|
Tap to rate this tab
# A B C D E F G H I J K L M N O P Q R S T U V W X Y Z