Song name
# A B C D E F G H I J K L M N O P Q R S T U V W X Y Z

Linkin Park - Iridescent tab

Iridescent - Solo

Tuning - Standard

Note:  I know that the other tabs are correct in how
Linkin Park plays it officially, but you can also play 
it this way, just in case you want to play it with a 
lower sound to it.

[x5]
E|------------------------------------------------------------|
B|------------------------------------------------------------|
G|-9--9--9--9--12--12--9--9--10--10--9--9--10--10--9--9-------|
D|-x--x--x--x--x---x---x--x--x---x---x--x--x---x---x--x-------|
A|-7--7--7--7--10--10--7--7--8---8---7--7--8---8---8--8-------|
E|------------------------------------------------------------|

E|------------------------------------------------------------|
B|------------------------------------------------------------|
G|-5--5--5--5--5--5--5--5--7--7--7--7--7--7--7--7-------------|
D|-x--x--x--x--x--x--x--x--x--x--x--x--x--x--x--x-------------|
A|-3--3--3--3--3--3--3--3--5--5--5--5--5--5--5--5-------------|
E|------------------------------------------------------------|

[x1]
E|------------------------------------------------------------|
B|------------------------------------------------------------|
G|-9---------12-----------------------------------------------|
D|-x--(x16)--x---(x16)----------------------------------------|
A|-7---------10-----------------------------------------------|
E|------------------------------------------------------------|

[x3]
E|------------------------------------------------------------|
B|------------------------------------------------------------|
G|-9--9--9--9--12--12--9--9--10--10--9--9--10--10--9--9-------|
D|-x--x--x--x--x---x---x--x--x---x---x--x--x---x---x--x-------|
A|-7--7--7--7--10--10--7--7--8---8---7--7--8---8---8--8-------|
E|------------------------------------------------------------|

E|------------------------------------------------------------|
B|------------------------------------------------------------|
G|-5--5--5--5--5--5--5--5--7--7--7--7--7--7--7--7-------------|
D|-x--x--x--x--x--x--x--x--x--x--x--x--x--x--x--x-------------|
A|-3--3--3--3--3--3--3--3--5--5--5--5--5--5--5--5-------------|
E|------------------------------------------------------------|

[x1]
E|------------------------------------------------------------|
B|------------------------------------------------------------|
G|-9---------12-----------------------------------------------|
D|-x--(x16)--x---(x9)-----------------------------------------|
A|-7---------10-----------------------------------------------|
E|------------------------------------------------------------|

[x3]
E|------------------------------------------------------------|
B|------------------------------------------------------------|
G|-9--9--9--9--12--12--9--9--10--10--9--9--10--10--9--9-------|
D|-x--x--x--x--x---x---x--x--x---x---x--x--x---x---x--x-------|
A|-7--7--7--7--10--10--7--7--8---8---7--7--8---8---8--8-------|
E|------------------------------------------------------------|

E|------------------------------------------------------------|
B|------------------------------------------------------------|
G|-5--5--5--5--5--5--5--5--5--5--5--5--7--7--7--7-------------|
D|-x--x--x--x--x--x--x--x--x--x--x--x--x--x--x--x-------------|
A|-3--3--3--3--3--3--3--3--3--3--3--3--5--5--5--5-------------|
E|------------------------------------------------------------|

[x1]
E|------------------------------------------------------------|
B|------------------------------------------------------------|
G|-9---------12---------5~------------------------------------|
D|-x--(x16)--x---(x16)--5~------------------------------------|
A|-7---------10---------3~------------------------------------|
E|------------------------------------------------------------|

If there's any confusion, questions, or advice on how to 
improve it, please post a comment. Have fun playing, and 
please rate! -Rarrlow
Tap to rate this tab
# A B C D E F G H I J K L M N O P Q R S T U V W X Y Z