Song name
# A B C D E F G H I J K L M N O P Q R S T U V W X Y Z

Linkin Park - Powerless tab

Powerless - Tab

Tuning: Standard

Note I: There's no guitar playing until 2:13.  Also, I don't 
think it matters too much whether you silence the D string 
or not during any part of the song.  Either way sounds fine.

For example:
E|----------|
B|----------|
G|-5------5-|
D|-x-(or)-5-|
A|-3------3-|
E|----------|

Note II: I think it sounds better if you use the reverb 
effect as well, but it's not that important.


[2:13-2:36]
[x2]
E|------------------------------------------------------------|
B|------------------------------------------------------------|
G|-5-5-5-5-5-5-10-10-8-8-8-8-3-3-3-3-5-5-5-5-5-5-5-5----------|
D|-x-x-x-x-x-x-x--x--x-x-x-x-x-x-x-x-x-x-x-x-x-x-x-x----------|
A|-3-3-3-3-3-3-8--8--6-6-6-6-1-1-1-1-3-3-3-3-3-3-3-3----------|
E|------------------------------------------------------------|

E|------------------------------------------------------------|
B|------------------------------------------------------------|
G|------------------------------------------------------------|
D|-6-6-6-6-8-8-8-8--------------------------------------------|
A|-x-x-x-x-x-x-x-x--------------------------------------------|
E|-4-4-4-4-6-6-6-6--------------------------------------------|

[x1]
E|------------------------------------------------------------|
B|------------------------------------------------------------|
G|-5-5-5-5-5-5-10-10-8-8-8-8-3-3-3-3-5-5-5-5-5-5-5-5----------|
D|-x-x-x-x-x-x-x--x--x-x-x-x-x-x-x-x-x-x-x-x-x-x-x-x----------|
A|-3-3-3-3-3-3-8--8--6-6-6-6-1-1-1-1-3-3-3-3-3-3-3-3----------|
E|------------------------------------------------------------|

E|------------------------------------------------------------|
B|------------------------------------------------------------|
G|---------5-5-5-5--------------------------------------------|
D|-6-6-6-6-x-x-x-x-8-8-8-8-8-8-8-8-8-8-8-8-8-8-8-8------------|
A|-x-x-x-x-3-3-3-3-x-x-x-x-x-x-x-x-x-x-x-x-x-x-x-x------------|
E|-4-4-4-4---------6-6-6-6-6-6-6-6-6-6-6-6-6-6-6-6------------|

[2:51-3:29]
E|------------------------------------------------------------|
B|------------------------------------------------------------|
G|-8-8-8-8-8-8-8-8-8-8-8-8-6-6-5-5-3-3-3-3-3-3-3-3-3-3-3-3-3--|
D|-x-x-x-x-x-x-x-x-x-x-x-x-x-x-x-x-x-x-x-x-x-x-x-x-x-x-x-x-x--|
A|-6-6-6-6-6-6-6-6-6-6-6-6-4-4-3-3-1-1-1-1-1-1-1-1-1-1-1-1-1--|
E|------------------------------------------------------------|

E|------------------------------------------------------------|
B|------------------------------------------------------------|
G|-3-3-3-5-5-5-5-5-5-6-6-5-5-5-5-5-5-5-5-5-5-5-5-5-5-5-5-5-5--|
D|-x-x-x-x-x-x-x-x-x-x-x-x-x-x-x-x-x-x-x-x-x-x-x-x-x-x-x-x-x--|
A|-1-1-1-3-3-3-3-3-3-4-4-3-3-3-3-3-3-3-3-3-3-3-3-3-3-3-3-3-3--|
E|------------------------------------------------------------|

E|------------------------------------------------------------|
B|------------------------------------------------------------|
G|-5-5-5-5-5-5------------------------------------------------|
D|-x-x-x-x-x-x------------------------------------------------|
A|-3-3-3-3-3-3------------------------------------------------|
E|------------------------------------------------------------|

[x2]
E|------------------------------------------------------------|
B|------------------------------------------------------------|
G|-5-5-5-5-5-5-10-10-8-8-8-8-3-3-3-3-5-5-5-5-5-5-5-5----------|
D|-5-5-5-5-5-5-10-10-8-8-8-8-3-3-3-3-5-5-5-5-5-5-5-5----------|
A|-3-3-3-3-3-3-8--8--6-6-6-6-1-1-1-1-3-3-3-3-3-3-3-3----------|
E|------------------------------------------------------------|

E|------------------------------------------------------------|
B|------------------------------------------------------------|
G|------------------------------------------------------------|
D|-6-6-6-6-8-8-8-8--------------------------------------------|
A|-6-6-6-6-8-8-8-8--------------------------------------------|
E|-4-4-4-4-6-6-6-6--------------------------------------------|

[x1]
E|------------------------------------------------------------|
B|------------------------------------------------------------|
G|-5-5-5-5-5-5-10-10-8-8-8-8-3-3-3-3-5-5-5-5-5-5-5-5----------|
D|-5-5-5-5-5-5-10-10-8-8-8-8-3-3-3-3-5-5-5-5-5-5-5-5----------|
A|-3-3-3-3-3-3-8--8--6-6-6-6-1-1-1-1-3-3-3-3-3-3-3-3----------|
E|------------------------------------------------------------|

E|------------------------------------------------------------|
B|------------------------------------------------------------|
G|---------5-5-5-5--------------------------------------------|
D|-6-6-6-6-5-5-5-5-8-8-8-8-8-8-8-8-8-8-8-8-8-8-8-8------------|
A|-6-6-6-6-3-3-3-3-8-8-8-8-8-8-8-8-8-8-8-8-8-8-8-8------------|
E|-4-4-4-4---------6-6-6-6-6-6-6-6-6-6-6-6-6-6-6-6------------|

If there's any confusion, questions, or advice on how to 
improve it, please post a comment. Have fun playing, and 
please rate! -Rarrlow
Tap to rate this tab
# A B C D E F G H I J K L M N O P Q R S T U V W X Y Z