Song name
# A B C D E F G H I J K L M N O P Q R S T U V W X Y Z

Linkin Park - A06 tab

Linkin Park - A.06
Tuning Drop D

pm = Palm Mute
x  = Scratch
p  = Pull Off
h  = hit/pluck

E|--------------------------------|--------------------------------|
B|--------------------------------|--------------------------------|
G|--------------------------------|--------------------------------|
D|--------------------------------|--------------------------------|
A|--------------------------------|--------------------------------|
D|-8h7p0-0-0-1p0-0-0-0-1p0-1p0-0-0|-8h7p0-0-0-1p0-0-0-0-1p0-1p0-0-0|
  pm------------------------------ pm------------------------------

E|--------------------------------|--------------------------------|
B|--------------------------------|--------------------------------|
G|--------------------------------|--------------------------------|
D|--------------------------------|--------------------------------|
A|--------------------------------|--------------------------------|
D|-8h7p0-0-0-1p0-0-0-0-1p0-1p0-0-0|-8h7p0-0-0-1p0-0-0-0-1p0-1p0-0-0|
  pm------------------------------ pm------------------------------

E|--------------------------------|
B|--------------------------------|
G|--------------------------------|
D|--------------------------------|
A|--------------------------------|
D|-8h7p0-0-0-1p0-0-0--------------|
 pm-----------------

E|--------------------------------|--------------------------------|
B|--------------------------------|--------------------------------|
G|--------------------------------|--------------------------------|
D|-0-2-1-0-6-0-2-3-0-3-5-0-7-3-1--|-0-2-1-0-6-0-2-3-0-3-5-0-7-3-1--|
A|-0-2-1-0-6-0-2-3-0-3-5-0-7-3-1--|-0-2-1-0-6-0-2-3-0-3-5-0-7-3-1--|
D|-0-2-1-0-6-0-2-3-0-3-5-0-7-3-1--|-0-2-1-0-6-0-2-3-0-3-5-0-7-3-1--|


E|--------------------------------|
B|--------------------------------|
G|--------------------------------|
D|-0-2-1-0-6-0-2-3-0-3-5-0-x-x-x--|
A|-0-2-1-0-6-0-2-3-0-3-5-0-x-x-x--|
D|-0-2-1-0-6-0-2-3-0-3-5-0-x-x-x--|


E|--------------------------------|--------------------------------|
B|--------------------------------|--------------------------------|
G|--------------------------------|--------------------------------|
D|-0-2-1-0-6-0-2-3-0-3-5-0-7-3-1--|-0-2-1-0-6-0-2-3-0-3-5-0-7-3-1--|
A|-0-2-1-0-6-0-2-3-0-3-5-0-7-3-1--|-0-2-1-0-6-0-2-3-0-3-5-0-7-3-1--|
D|-0-2-1-0-6-0-2-3-0-3-5-0-7-3-1--|-0-2-1-0-6-0-2-3-0-3-5-0-7-3-1--|


E|--------------------------------|
B|--------------------------------|
G|--------------------------------|
D|-0-2-1-0-6-0-2-3-0-3-5-0-x-x-x--|
A|-0-2-1-0-6-0-2-3-0-3-5-0-x-x-x--|
D|-0-2-1-0-6-0-2-3-0-3-5-0-x-x-x--|

if you have any changes e-mail me at jchandler-guitars@hotmail.com
Tap to rate this tab
# A B C D E F G H I J K L M N O P Q R S T U V W X Y Z