Song name
# A B C D E F G H I J K L M N O P Q R S T U V W X Y Z

Linkin Park - Numb Acoustic tab

Help us improve GuitareTab! Take a short survey!
This is my wierd sorta acoustic version for numb by linkin park. As long as u get
the timing right, i reckon it sounds pretty gud

Standard tuning (EADGBe)
CAPO 2


   Em	           C               G               D
e|---------------|---------------|---------------|------2-------|
B|-------0-------|-------1-------|------3--------|----3---3---3-|
G|-----0---0---0-|-----0---0---0-|-----0---0---0-|---2------2---|
D|---2-------2---|---2-------2---|---0-------0---|-0------------|
A|-2-------------|-3-------------|---------------|--------------|
E|---------------|---------------|-3-------------|--------------|


   Em	           C               G               D
e|---------------|---------------|---------------|------2-------|
B|-------0-------|-------1-------|------3--------|----3---3---3-|
G|-----0---0---0-|-----0---0---0-|-----0---0---0-|---2------2---|
D|---2-------2---|---2-------2---|---0-------0---|-0------------|
A|-2-------------|-3-------------|---------------|--------------|
E|---------------|---------------|-3-------------|--------------|
    I'm tired of being…	    Feeling so faithless…

   Em	           C               G               D
e|---------------|---------------|---------------|------2-------|
B|-------0-------|-------1-------|------3--------|----3---3---3-|
G|-----0---0---0-|-----0---0---0-|-----0---0---0-|---2------2---|
D|---2-------2---|---2-------2---|---0-------0---|-0------------|
A|-2-------------|-3-------------|---------------|--------------|
E|---------------|---------------|-3-------------|--------------|
   Don't know what… 		Put under the pressure… 

   C               D
e|---------------|------2-------|
B|-------1-------|----3---3---3-|
G|-----0---0---0-|---2------2---|
D|---2-------2---|-0------------|
A|-3-------------|--------------|
E|---------------|--------------|
   Shooooooooooooooes

   Em	           G               C               D
e|---------------|---------------|---------------|------2-------|
B|-------0-------|------3--------|-------1-------|----3---3---3-|
G|-----0---0---0-|-----0---0---0-|-----0---0---0-|---2------2---|
D|---2-------2---|---0-------0---|---2-------2---|-0------------|
A|-2-------------|---------------|-3-------------|--------------|
E|---------------|-3-------------|---------------|--------------|
   Every step…                  to yooooooooooooooou…


   Em	           C               G               D
e|---------------|---------------|---------------|------2-------|
B|-------0-------|-------1-------|------3--------|----3---3---3-|
G|-----0---0---0-|-----0---0---0-|-----0---0---0-|---2------2---|
D|---2-------2---|---2-------2---|---0-------0---|-0------------|
A|-2-------------|-3-------------|---------------|--------------|
E|---------------|---------------|-3-------------|--------------|
   I've become so numb… 		   Become so tired

   Em	           C               G               D
e|---------------|---------------|---------------|------2-------|
B|-------0-------|-------1-------|------3--------|----3---3---3-|
G|-----0---0---0-|-----0---0---0-|-----0---0---0-|---2------2---|
D|---2-------2---|---2-------2---|---0-------0---|-0------------|
A|-2-------------|-3-------------|---------------|--------------|
E|---------------|---------------|-3-------------|--------------|
 …aware. I'm becoming this…  		      more like me


   Em	           C               G               D
e|---------------|---------------|---------------|------2-------|
B|-------0-------|-------1-------|------3--------|----3---3---3-|
G|-----0---0---0-|-----0---0---0-|-----0---0---0-|---2------2---|
D|---2-------2---|---2-------2---|---0-------0---|-0------------|
A|-2-------------|-3-------------|---------------|--------------|
E|---------------|---------------|-3-------------|--------------|
   Can't you see…                 Holding too tightly, afraid…
 
   Em	           C               G               D
e|---------------|---------------|---------------|------2-------|
B|-------0-------|-------1-------|------3--------|----3---3---3-|
G|-----0---0---0-|-----0---0---0-|-----0---0---0-|---2------2---|
D|---2-------2---|---2-------2---|---0-------0---|-0------------|
A|-2-------------|-3-------------|---------------|--------------|
E|---------------|---------------|-3-------------|--------------|
  Cause everything… 		    fallen apart right in front 

   C               D
e|---------------|------2-------|
B|-------1-------|----3---3---3-|
G|-----0---0---0-|---2------2---|
D|---2-------2---|-0------------|
A|-3-------------|--------------|
E|---------------|--------------|
   yooooooooooooooou

   Em	           G               C               D
e|---------------|---------------|---------------|------2-------|
B|-------0-------|------3--------|-------1-------|----3---3---3-|
G|-----0---0---0-|-----0---0---0-|-----0---0---0-|---2------2---|
D|---2-------2---|---0-------0---|---2-------2---|-0------------|
A|-2-------------|---------------|-3-------------|--------------|
E|---------------|-3-------------|---------------|--------------|
   Every step…                  to yooooooooooooooou…
 
   Em	           G        D
e|---------------|--------------2---|
B|-------0-------|-----3----------3-|
G|-----0---0---0-|-------0----2-----|
D|---2-------2---|---0------0-------|
A|-2-------------|------------------|
E|---------------|-3----------------|
  …second I waste… I can    take


   Em	           C               G               D
e|---------------|---------------|---------------|------2-------|
B|-------0-------|-------1-------|------3--------|----3---3---3-|
G|-----0---0---0-|-----0---0---0-|-----0---0---0-|---2------2---|
D|---2-------2---|---2-------2---|---0-------0---|-0------------|
A|-2-------------|-3-------------|---------------|--------------|
E|---------------|---------------|-3-------------|--------------|
   I've become so numb… 		   Become so tired

   Em	           C               G               D
e|---------------|---------------|---------------|------2-------|
B|-------0-------|-------1-------|------3--------|----3---3---3-|
G|-----0---0---0-|-----0---0---0-|-----0---0---0-|---2------2---|
D|---2-------2---|---2-------2---|---0-------0---|-0------------|
A|-2-------------|-3-------------|---------------|--------------|
E|---------------|---------------|-3-------------|--------------|
 …aware. I'm becoming this…  		      more like me
 

   C               D
  e|---------------|------2-------|
  B|-------1-------|----3---3---3-|
  G|-----0---0---0-|---2------2---|
  D|---2-------2---|-0------------|
  A|-3-------------|--------------|
  E|---------------|--------------|
like you        And I know

   Em	     G         Em        D         C
e|---------|---------|---------|-----2---|---------------|
B|-----0---|-----3---|-----0---|-------3-|-------1-------|
G|-------0-|-------0-|-------0-|---2-----|-----0---0---0-|
D|---2-----|---0-----|---2-----|-0-------|---2-------2---|
A|-2-------|---------|-2-------|---------|-3-------------|
E|---------|-3-------|---------|---------|---------------|
 …end…       up…       fail…     ing…      too

       D	       B
    e|------2-------|---------------------------------------------|
    B|----3---3---3-|-------4--------------4--------------4-------|
    G|---2------2---|-----4---4---4------4---4---4------4---4---4-|
    D|-0------------|---4-------4------4-------4------4-------4---|
    A|--------------|-2--------------2--------------2-------------|
    E|--------------|---------------------------------------------|
But I know…           just like me… disappointed…   you


   Em	           C               G               D
e|---------------|---------------|---------------|------2-------|
B|-------0-------|-------1-------|------3--------|----3---3---3-|
G|-----0---0---0-|-----0---0---0-|-----0---0---0-|---2------2---|
D|---2-------2---|---2-------2---|---0-------0---|-0------------|
A|-2-------------|-3-------------|---------------|--------------|
E|---------------|---------------|-3-------------|--------------|
   I've become so numb… 		   Become so tired

   Em	           C               G               D
e|---------------|---------------|---------------|------2-------|
B|-------0-------|-------1-------|------3--------|----3---3---3-|
G|-----0---0---0-|-----0---0---0-|-----0---0---0-|---2------2---|
D|---2-------2---|---2-------2---|---0-------0---|-0------------|
A|-2-------------|-3-------------|---------------|--------------|
E|---------------|---------------|-3-------------|--------------|
 …aware. I'm becoming this…  		      more like me

   Em	           C               G               D
e|---------------|---------------|---------------|------2-------|
B|-------0-------|-------1-------|------3--------|----3---3---3-|
G|-----0---0---0-|-----0---0---0-|-----0---0---0-|---2------2---|
D|---2-------2---|---2-------2---|---0-------0---|-0------------|
A|-2-------------|-3-------------|---------------|--------------|
E|---------------|---------------|-3-------------|--------------|
   I've become so numb… 		             want me to be

   Em	           C               G               D
e|---------------|---------------|---------------|------2-------|
B|-------0-------|-------1-------|------3--------|----3---3---3-|
G|-----0---0---0-|-----0---0---0-|-----0---0---0-|---2------2---|
D|---2-------2---|---2-------2---|---0-------0---|-0------------|
A|-2-------------|-3-------------|---------------|--------------|
E|---------------|---------------|-3-------------|--------------|
   I've become so numb… 		             want me to be


   Em	           C               G               D        Em
e|---------------|---------------|---------------|------2-|-0-|
B|-------0-------|-------1-------|------3--------|----3---|-0-|
G|-----0---0---0-|-----0---0---0-|-----0---0---0-|---2----|-0-|
D|---2-------2---|---2-------2---|---0-------0---|-0------|-2-|
A|-2-------------|-3-------------|---------------|--------|-2-|
E|---------------|---------------|-3-------------|--------|-0-|

Well, thats it. Plz rate this as its my first tab that ive submitted and any
comments/suggestions/ingenious brainwaves, etc on wot else i can do wiv this
tune, send to mentulgoon@hotmail.com. 

(\__/) 
( >.<) 
(")_(")



Related for Numb Acoustic tab