Song name
# A B C D E F G H I J K L M N O P Q R S T U V W X Y Z

Linkin Park - My December Remix tab

Submitted By: Tim[NCS]
This is my first tab, so sorry if I'm wrong...

Piano Intro (remade for tablature) repeat 3x

|-------------------------|
|-------------------------|
|-------------------------|
|------2---0---3---2------|
|----3---2---1---0--------|
|-------------------------|

Next repeat this 2x

|---------------------|
|---------------------|
|---------------------|
|---------------------|
|---------------------|
|----11--10--5--6-----|

///////////////////////////////////

|-------------------------|
|-------------------------|
|-------------------------|
|------2---0---3---2------|
|----3---2---1---0--------|
|-------------------------|

|---------------------|
|---------------------|
|---------------------|
|---------------------|
|---------------------|
|----11--10--5--6-----|

|-------------------------|
|-------------------------|
|-------------------------|
|------2---0---3---2------|
|----3---2---1---0--------|
|-------------------------|

|---------------------|
|---------------------|
|---------------------|
|---------------------|
|---------------------|
|----11--10--5--6-----|
Tap to rate this tab
# A B C D E F G H I J K L M N O P Q R S T U V W X Y Z