Song name
# A B C D E F G H I J K L M N O P Q R S T U V W X Y Z

Linkin Park - Sold My Soul To Yo Mama tab

-------------------------------------------------------------------------------
		SOLD MY SOUL TO YO MAMA - Linkin Park
-------------------------------------------------------------------------------
Tabbed by: slyo
Email: sly@davidhurst.net

This song is from the LP: Underground 4 CD

Tuning: Db Ab Db Gb Bb Eb

. palm mute

Clean

Eb|---------------------------------------------------------------------------|
Bb|---------------------------------------------------------------------------|
Gb|---------------------------------------------------------------------------| 3x
Db|---------------------------------------------------------------------------|
Ab|-0-2-2-0-2---5--5-4-4-2-2--------------------------------------------------|
Db|--------------------------4-5-5-4-5--0--0-0-2-2-0--------------------------|
    . . . . .   .  . . . . . . . . . .  .  . . . . .

Distortion

Eb|---------------------------------------------------------------------------|
Bb|---------------------------------------------------------------------------|
Gb|------7--------------------------------------------------------------------| 2x
Db|-9----7-----5-7-0-0-2-2--2--2-0-0-2-2--2-0-0-0-----------------------------|
Ab|-9----5-----5-7-0-0-2-2--2--2-0-0-2-2--2-0-0-0-----------------------------|
Db|-9----5-----5-7-0-0-2-2--2--2-0-0-2-2--2-0-0-0-----------------------------|

Clean (after first time bass plays along)

Eb|---------------------------------------------------------------------------|
Bb|---------------------------------------------------------------------------|
Gb|---------------------------------------------------------------------------| 3x
Db|---------------------------------------------------------------------------|
Ab|-0-2-2-0-2---5--5-4-4-2-2--------------------------------------------------|
Db|--------------------------4-5-5-4-5--0--0-0-2-2-0--------------------------|
    . . . . .   .  . . . . . . . . . .  .  . . . . .

Clean (let ring)
Bass plays the other riff, though I'm not sure
if there's a second guitar playing that riff.


Eb|---------------------------------------------------------------------------|
Bb|----------------10----------------------7----------------------------------|
Gb|-----------11-----------------------7--------------------------------------| 2x
Db|---------9----9-------------------5---5------------------------------------|
Ab|---------------------------------------------------------------------------|
Db|---------------------------------------------------------------------------|

Eb|---------------------------------------------------------------------------|
Bb|---------------7-------------------------7---------------------------------|
Gb|-----------7-------------------------7-------------------------------------|
Db|---------5---5---------------------5---5-----------------------------------|
Ab|---------------------------------------------------------------------------|
Db|---------------------------------------------------------------------------|

Clean

Eb|---------------------------------------------------------------------------| \
Bb|---------------------------------------------------------------------------|  \
Gb|---------------------------------------------------------------------------|   \
Db|---------------------------------------------------------------------------|    \
Ab|-0-2-2-0-0-2-2-0-0-2-2-0-2-------------------------------------------------|     \
Db|-----------------------------0-2-2-0-0-2-2-0-0-2-2-0-2---------------------|      \
    . . . . . . . . . . . . .   . . . . . . . . . . . . .                             \  2x
                                                                                      /
Eb|---------------------------------------------------------------------------|      /
Bb|---------------------------------------------------------------------------|     /
Gb|---------------------------------------------------------------------------|    /
Db|---------------------------------------------------------------------------|   /
Ab|-0-2-2-0-0-2-2-0-0-2-2-0-2-------------------------------------------------|  /
Db|-----------------------------5--5-4-0--5--5--5-4-0-------------------------| /
    . . . . . . . . . . . . .   .  . . .  .  .  . . .

Eb|---------------------------------------------------------------------------|
Bb|---------------------------------------------------------------------------|
Gb|---------------------------------------------------------------------------|
Db|---------------------------------------------------------------------------|
Ab|-0-2-2-0-2-----------------------------------------------------------------|
Db|---------------------------------------------------------------------------|
    . . . . .
Tap to rate this tab
 
# A B C D E F G H I J K L M N O P Q R S T U V W X Y Z