Song name
# A B C D E F G H I J K L M N O P Q R S T U V W X Y Z

Linkin Park - Runaway 6 String tab

Band: Linkin Park
Song: Runaway (6 string)

Tuning: DROPPED D |-Db-Ab-Db-Gb-Bb-Eb|

Ontro Sustain Pedal throught the whole song
|---------------------------------|---------------------------------|
|---------------------------------|---------------------------------|
|-5---5---5---8-8---8-8---8---8---|---------------------------------|
|-5---5---5---8-8---8-8---8---8---|-8-------8---8-8---8-8---8---8---|
|-3---3---3---6-6---6-6---6---6---|-6-------6---8-8---8-8---8---8---|
|---------------------------------|-6-------6---8-8---8-8---8---8---|

|---------------------------------|---------------------------------|
|---------------------------------|---------------------------------|
|-5---5---5---8-8---8-8---8---8---|---------------------------------|
|-5---5---5---8-8---8-8---8---8---|-8-------8---8-8---8-8---8-------|
|-3---3---3---6-6---6-6---6---6---|-6-------6---8-8---8-8---8-------|
|---------------------------------|-6-------6---8-8---8-8---8-------|

Chorus Pedal
|---------------------------------|---------------------------------|
|---------------------------------|---------------------------------|
|---------------------------------|---------------------------------|
|-1-------1---1-4---4-4---4---4---|-8-------8---8-8---8-8---8---8---|
|-1-------1---1-4---4-4---4---4---|-6-------6---8-8---8-8---8---8---|
|-1-------1---1-4---4-4---4---4---|-6-------6---8-8---8-8---8---8---|

|---------------------------------|---------------------------------|
|---------------------------------|---------------------------------|
|---------------------------------|---------------------------------|
|-1-------1---1-4---4-4---4---4---|-8-------8---8-8---8-8---8-------|
|-1-------1---1-4---4-4---4---4---|-6-------6---8-8---8-8---8-------|
|-1-------1---1-4---4-4---4---4---|-6-------6---8-8---8-8---8-------|

Pre Chorus Harmonic
|---------------------------------|
|---------------------------------|
|---------------------------------|
|-9-------9-------9---------------|
|-------------------------9-------|
|---------------------------------|
              
Chorus & Chorus Pedal           3 Times
|---------------------------------|---------------------------------|
|---------------------------------|---------------------------------|
|---------------------------------|---------------------------------|
|-1-------1---1-4---4-4---4---4---|-8-------8---8-8---8-8---8---8---|
|-1-------1---1-4---4-4---4---4---|-6-------6---8-8---8-8---8---8---|
|-1-------1---1-4---4-4---4---4---|-6-------6---8-8---8-8---8---8---|

Then
|---------------------------------|---------------------------------|
|---------------------------------|---------------------------------|
|---------------------------------|---------------------------------|
|-1-------1---1-4---4-4---4---4---|-8-------8---8-8---8-8---8-------|
|-1-------1---1-4---4-4---4---4---|-6-------6---8-8---8-8---8-------|
|-1-------1---1-4---4-4---4---4---|-6-------6---8-8---8-8---8-------|

Chorus Pedal throught rest of song
Bridge P.M.                     7 Times
|---------------------------------|
|---------------------------------|
|---------------------------------|
|---------1---------------6-------|
|-0---0-0-1---0-0---0-0---4-------|
|-0---0-0-1---0-0---0-0---4-------|
  .   . . .   . .   . .   .
then
|---------------------------------|
|---------------------------------|
|---------------------------------|
|---------1---6-6-6-6-6-6-6-6-6-6-|
|-0---0-0-1---4-4-4-4-4-4-4-4-4-4-|
|-0---0-0-1---4-4-4-4-4-4-4-4-4-4-|
  .   . .    
last Chorus                     3 Times
|---------------------------------|---------------------------------|
|---------------------------------|---------------------------------|
|-5---5---5---8-8---8-8---8---8---|---------------------------------|
|-5---5---5---8-8---8-8---8---8---|-8-------8---8-8---8-8---8---8---|
|-3---3---3---6-6---6-6---6---6---|-6-------6---8-8---8-8---8---8---|
|---------------------------------|-6-------6---8-8---8-8---8---8---|

Then
|---------------------------------|---------------------------------|
|---------------------------------|---------------------------------|
|-5---5---5---8-8---8-8---8---8---|---------------------------------|
|-5---5---5---8-8---8-8---8---8---|-8-------8---8-8---8-8---8-------|
|-3---3---3---6-6---6-6---6---6---|-6-------6---8-8---8-8---8-------|
|---------------------------------|-6-------6---8-8---8-8---8-------|

Outro                           3 Times
|---------------------------------|---------------------------------|
|---------------------------------|---------------------------------|
|---------------------------------|---------------------------------|
|-1-------1---1---4-------4---4---|-8-------8---8---8-------8---8---|
|-1-------1---1---4-------4---4---|-6-------6---6---8-------8---8---|
|-1-------1---1---4-------4---4---|-6-------6---6---8-------8---8---|

then P.M.
|---------------------------------|---------------------------------|
|---------------------------------|---------------------------------|
|---------------------------------|---------------------------------|
|-1-------1---1---4-------4---4---|-8-------8---8---8---------------|
|-1-------1---1---4-------4---4---|-6-------6---6---8-------0---0---|
|-1-------1---1---4-------4---4---|-6-------6---6---8-------0---0---|
                                                            .   .
Tap to rate this tab
# A B C D E F G H I J K L M N O P Q R S T U V W X Y Z