Song name
# A B C D E F G H I J K L M N O P Q R S T U V W X Y Z

Linkin Park - Its Going Down tab

i like playing this instead of those harmonic versions everyone else writes
it sounds pretty good 2......please rate!!!!

e------------------------------------------------------------------|
b-------------------4-4----------------------------------4-4-------|
g-------------------4-4----------------------------------4-4-------|   intro
d------------------------------------9---9-------------------------|
a---3---0-0-0-0-0-0-------0-0---0--0-9-0-9--0-0-0-0-0-0------0-0-0-|
d---3---0-0-0-0-0-0-------0-0---0--0-9-0-9--0-0-0-0-0-0------0-0-0-|
    ^                                                                ^^^
volume swell                                                 allow feedback

e------------------------------------------------------------------|
b------------------------------------------------------------------|
g------------------------------------------------------------------| verse
d--------------------9---9-----------------9---9-------------------| (repeat)
a------0-0-0-2-0---0-9-0-9---0-0-0-2-0---0-9-0-9---0-0-0-2-0-------|
d------0-0-0-2-0---0-9-0-9---0-0-0-2-0---0-9-0-9---0-0-0-2-0-------|

e------------------------------------------------------------------|
b-------------------4-4----------------------------------4-4-------|
g-------------------4-4----------------------------------4-4-------|  chorus
d------------------------------------9---9-------------------------| (repeat)
a-------0-0-0-0-0-0-------0-0---0--0-9-0-9--0-0-0-0-0-0------0-0-0-|
d-------0-0-0-0-0-0-------0-0---0--0-9-0-9--0-0-0-0-0-0------0-0-0-|
Tap to rate this tab
# A B C D E F G H I J K L M N O P Q R S T U V W X Y Z