Song name
# A B C D E F G H I J K L M N O P Q R S T U V W X Y Z

Linkin Park - Leave Out All The Rest tab

Leave Out All the Rest

**Hey, just for the record, this isn't my work, I just found it. The site is
http://www.ultimate-guitar.com/submit/tabs.php incase anyone wants to know.
ENJOY

Guitar 1 - D A D G B E (Clean w/reverb)
Guitar 2 - D A D G B E (Distorted w/reverb)
Guitar 3 - D A D G B E (Heavy distortion)

This song is really more about the strings and keyboards than the guitar.
Guitar 1 only appears twice, playing a little 2-note clean part before the
first 2 choruses (which is barely audible on the studio version but can be
clearly heard live). Guitar 2's part consists of strumming a single octave
during the choruses and bridge, and Guitar 3 only appears in the final
chorus, playing 4 big, distorted powerchords that provide the song's climax.
On the live version, Brad plays Guitars 1 and 2, and Phoenix actually plays
Guitar 3 because Mike plays keyboards throughout the entire song. The
bassline is provided by the left hand of Mike's keyboard part. This song is
actually played half a step down live (Db Ab Db Gb Bb Eb tuning), I tabbed it
out in Drop D because I think it was recorded that way. It's a lot easier for
Guitar 3 to go from the 3rd fret to open strings than it is to go from the
4th fret to the 1st fret. Regardless, if you want to play this like the live
version, just tune down half a step and move everything in this tab up by one
fret.

(No guitar until the first pre-chorus)

Pre-chorus - Guitar 1
|----------------------------------|
|----------------------------------|
|-12------12-----12--12-----12-----|
|-----10------10--------10------10-|
|----------------------------------|
|----------------------------------|

Chorus - Guitar 2
|-------------------------------------------------------------------------------------|
|-------------------------------------------------------------------------------------|
|-12-12-12-12-12-12-12-12--12-12--12--12-12-12-12-12-12-12-12-12-12--12-12--12--12-12-|
|-x--x--x--x--x--x--x--x---x--x---x---x--x--x--x--x--x--x--x--x--x---x--x---x---x--x--|
|-10-10-10-10-10-10-10-10--10-10--10--10-10-10-10-10-10-10-10-10-10--10-10--10--10-10-|
|-------------------------------------------------------------------------------------|

|-------------------------------------------------------------------------------------|
|-------------------------------------------------------------------------------------|
|-12-12-12-12-12-12-12-12--12-12--12--12-12-12-12-12-12-12-12-12-12--12-12--12--12-12-|
|-x--x--x--x--x--x--x--x---x--x---x---x--x--x--x--x--x--x--x--x--x---x--x---x---x--x--|
|-10-10-10-10-10-10-10-10--10-10--10--10-10-10-10-10-10-10-10-10-10--10-10--10--10-10-|
|-------------------------------------------------------------------------------------|

|-------------------------------------------------------------------------------------|
|-------------------------------------------------------------------------------------|
|-12-12-12-12-12-12-12-12--12-12--12--12-12-12-12-12-12-12-12-12-12--12-12--12--12-12-|
|-x--x--x--x--x--x--x--x---x--x---x---x--x--x--x--x--x--x--x--x--x---x--x---x---x--x--|
|-10-10-10-10-10-10-10-10--10-10--10--10-10-10-10-10-10-10-10-10-10--10-10--10--10-10-|
|-------------------------------------------------------------------------------------|

|-------------------------------------------------------------------------------------|
|-------------------------------------------------------------------------------------|
|-12-12-12-12-12-12-12-12--12-12--12--12-12-12-12-12-12-12-12-12-12--12-12--12--12-12-|
|-x--x--x--x--x--x--x--x---x--x---x---x--x--x--x--x--x--x--x--x--x---x--x---x---x--x--|
|-10-10-10-10-10-10-10-10--10-10--10--10-10-10-10-10-10-10-10-10-10--10-10--10--10-10-|
|-------------------------------------------------------------------------------------|

(No guitar during 2nd verse)

Pre-chorus - Guitar 1
|--------------------------------------------------------------------|
|--------------------------------------------------------------------|
|-12------12-----12--12-----12------12------12-----12--12-----12-----|
|-----10------10--------10------10------10------10--------10------10-|
|--------------------------------------------------------------------|
|--------------------------------------------------------------------|

Chorus - Guitar 2
|-------------------------------------------------------------------------------------|
|-------------------------------------------------------------------------------------|
|-12-12-12-12-12-12-12-12--12-12--12--12-12-12-12-12-12-12-12-12-12--12-12--12--12-12-|
|-x--x--x--x--x--x--x--x---x--x---x---x--x--x--x--x--x--x--x--x--x---x--x---x---x--x--|
|-10-10-10-10-10-10-10-10--10-10--10--10-10-10-10-10-10-10-10-10-10--10-10--10--10-10-|
|-------------------------------------------------------------------------------------|

|-------------------------------------------------------------------------------------|
|-------------------------------------------------------------------------------------|
|-12-12-12-12-12-12-12-12--12-12--12--12-12-12-12-12-12-12-12-12-12--12-12--12--12-12-|
|-x--x--x--x--x--x--x--x---x--x---x---x--x--x--x--x--x--x--x--x--x---x--x---x---x--x--|
|-10-10-10-10-10-10-10-10--10-10--10--10-10-10-10-10-10-10-10-10-10--10-10--10--10-10-|
|-------------------------------------------------------------------------------------|

|-------------------------------------------------------------------------------------|
|-------------------------------------------------------------------------------------|
|-12-12-12-12-12-12-12-12--12-12--12--12-12-12-12-12-12-12-12-12-12--12-12--12--12-12-|
|-x--x--x--x--x--x--x--x---x--x---x---x--x--x--x--x--x--x--x--x--x---x--x---x---x--x--|
|-10-10-10-10-10-10-10-10--10-10--10--10-10-10-10-10-10-10-10-10-10--10-10--10--10-10-|
|-------------------------------------------------------------------------------------|

|-------------------------------------------------------------------------------------|
|-------------------------------------------------------------------------------------|
|-12-12-12-12-12-12-12-12--12-12--12--12-12-12-12-12-12-12-12-12-12--12-12--12--12-12-|
|-x--x--x--x--x--x--x--x---x--x---x---x--x--x--x--x--x--x--x--x--x---x--x---x---x--x--|
|-10-10-10-10-10-10-10-10--10-10--10--10-10-10-10-10-10-10-10-10-10--10-10--10--10-10-|
|-------------------------------------------------------------------------------------|

Bridge - Guitar 2
|-------------------------------------------------------------------------------------|
|-------------------------------------------------------------------------------------|
|-12-12-12-12-12-12-12-12--12-12--12--12-12-12-12-12-12-12-12-12-12--12-12--12--12-12-|
|-x--x--x--x--x--x--x--x---x--x---x---x--x--x--x--x--x--x--x--x--x---x--x---x---x--x--|
|-10-10-10-10-10-10-10-10--10-10--10--10-10-10-10-10-10-10-10-10-10--10-10--10--10-10-|
|-------------------------------------------------------------------------------------|

|-------------------------------------------------------------------------------------|
|-------------------------------------------------------------------------------------|
|-12-12-12-12-12-12-12-12--12-12--12--12-12-12-12-12-12-12-12-12-12--12-12--12--12-12-|
|-x--x--x--x--x--x--x--x---x--x---x---x--x--x--x--x--x--x--x--x--x---x--x---x---x--x--|
|-10-10-10-10-10-10-10-10--10-10--10--10-10-10-10-10-10-10-10-10-10--10-10--10--10-10-|
|-------------------------------------------------------------------------------------|

|-------------------------------------------|
|-------------------------------------------|
|-12-12-12-12-12-12-12-12--12-12--12--12-12-|
|-x--x--x--x--x--x--x--x---x--x---x---x--x--|
|-10-10-10-10-10-10-10-10--10-10--10--10-10-|
|-------------------------------------------|

Final chorus
|-------------------------------------------------------------------------------------|
|-------------------------------------------------------------------------------------|
|-12-12-12-12-12-12-12-12--12-12--12--12-12-12-12-12-12-12-12-12-12--12-12--12--12-12-|
|-x--x--x--x--x--x--x--x---x--x---x---x--x--x--x--x--x--x--x--x--x---x--x---x---x--x--|
|-10-10-10-10-10-10-10-10--10-10--10--10-10-10-10-10-10-10-10-10-10--10-10--10--10-10-|
|-------------------------------------------------------------------------------------|
|Guitar 2
|
|-------------------------------------------------------------------------------------|
|-------------------------------------------------------------------------------------|
|-------------------------------------------------------------------------------------|
|-7~----------------------------------------10~---------------------------------------|
|-7~----------------------------------------10~---------------------------------------|
|-7~----------------------------------------10~---------------------------------------|
|Guitar 3

|-------------------------------------------------------------------------------------|
|-------------------------------------------------------------------------------------|
|-12-12-12-12-12-12-12-12--12-12--12--12-12-12-12-12-12-12-12-12-12--12-12--12--12-12-|
|-x--x--x--x--x--x--x--x---x--x---x---x--x--x--x--x--x--x--x--x--x---x--x---x---x--x--|
|-10-10-10-10-10-10-10-10--10-10--10--10-10-10-10-10-10-10-10-10-10--10-10--10--10-10-|
|-------------------------------------------------------------------------------------|
|Guitar 2
|
|-------------------------------------------------------------------------------------|
|-------------------------------------------------------------------------------------|
|-------------------------------------------------------------------------------------|
|-3~----------------------------------------0~----------------------------------------|
|-3~----------------------------------------0~----------------------------------------|
|-3~----------------------------------------0~----------------------------------------|
|Guitar 3

|-------------------------------------------------------------------------------------|
|-------------------------------------------------------------------------------------|
|-12-12-12-12-12-12-12-12--12-12--12--12-12-12-12-12-12-12-12-12-12--12-12--12--12-12-|
|-x--x--x--x--x--x--x--x---x--x---x---x--x--x--x--x--x--x--x--x--x---x--x---x---x--x--|
|-10-10-10-10-10-10-10-10--10-10--10--10-10-10-10-10-10-10-10-10-10--10-10--10--10-10-|
|-------------------------------------------------------------------------------------|
|Guitar 2
|
|-------------------------------------------------------------------------------------|
|-------------------------------------------------------------------------------------|
|-------------------------------------------------------------------------------------|
|-7~----------------------------------------10~---------------------------------------|
|-7~----------------------------------------10~---------------------------------------|
|-7~----------------------------------------10~---------------------------------------|
|Guitar 3

|-------------------------------------------------------------------------------------|
|-------------------------------------------------------------------------------------|
|-12-12-12-12-12-12-12-12--12-12--12--12-12-12-12-12-12-12-12-12-12--12-12--12--12-12-|
|-x--x--x--x--x--x--x--x---x--x---x---x--x--x--x--x--x--x--x--x--x---x--x---x---x--x--|
|-10-10-10-10-10-10-10-10--10-10--10--10-10-10-10-10-10-10-10-10-10--10-10--10--10-10-|
|-------------------------------------------------------------------------------------|
|Guitar 2
|
|-------------------------------------------------------------------------------------|
|-------------------------------------------------------------------------------------|
|-------------------------------------------------------------------------------------|
|-3~----------------------------------------0~----------------------------------------|
|-3~----------------------------------------0~----------------------------------------|
|-3~----------------------------------------0~----------------------------------------|
|Guitar 3
Tap to rate this tab
 
# A B C D E F G H I J K L M N O P Q R S T U V W X Y Z