Song name
# A B C D E F G H I J K L M N O P Q R S T U V W X Y Z

Linkin Park - Hands Held High tab

Intro
|-5-----5-----5---5-----5-----5---5-----5-----5---5-----5-----5---|
|---5-5---5-5---5---5-5---5-5---5---5-5---5-5---5---5-5---5-5---5-|
|-----------------------------------------------------------------|
|-----------------------------------------------------------------|
|-----------------------------------------------------------------|
|-----------------------------------------------------------------|

|-5-----5-----5---5-----5-----5---5-----5-----5---7-----7-----7---|
|---5-5---5-5---5---5-5---5-5---5---5-5---5-5---5---5-5---5-5---5-|
|-----------------------------------------------------------------|
|-----------------------------------------------------------------|
|-----------------------------------------------------------------|
|-----------------------------------------------------------------|

|-5-----5-----5---5-----5-----5---|
|---5-5---5-5---5---5-5---5-5---5-|
|---------------------------------|
|---------------------------------|
|---------------------------------|
|---------------------------------|

Verse 1
|-5-----5-----5---5-----5-----5---5-----5-----5---5-----5-----5---|
|---5-5---5-5---5---5-5---5-5---5---5-5---5-5---5---5-5---5-5---5-|
|-----------------------------------------------------------------|
|-----------------------------------------------------------------|
|-----------------------------------------------------------------|
|-----------------------------------------------------------------|

|-5-----5-----5---5-----5-----5---5-----5-----5---7-----7-----7---|
|---5-5---5-5---5---5-5---5-5---5---5-5---5-5---5---5-5---5-5---5-|
|-----------------------------------------------------------------|
|-----------------------------------------------------------------|
|-----------------------------------------------------------------|
|-----------------------------------------------------------------|

|-5-----5-----5---5-----5-----5---5-----5-----5---5-----5-----5---|
|---5-5---5-5---5---5-5---5-5---5---5-5---5-5---5---5-5---5-5---5-|
|-----------------------------------------------------------------|
|-----------------------------------------------------------------|
|-----------------------------------------------------------------|
|-----------------------------------------------------------------|

|-5-----5-----5---5-----5-----5---5-----5-----5---7-----7-----7---|
|---5-5---5-5---5---5-5---5-5---5---5-5---5-5---5---5-5---5-5---5-|
|-----------------------------------------------------------------|
|-----------------------------------------------------------------|
|-----------------------------------------------------------------|
|-----------------------------------------------------------------|

|-5-----5-----5---5-----5-----5---5-----5-----5---7-----7-----7---|
|---5-5---5-5---5---5-5---5-5---5---5-5---5-5---5---5-5---5-5---5-|
|-----------------------------------------------------------------|
|-----------------------------------------------------------------|
|-----------------------------------------------------------------|
|-----------------------------------------------------------------|

|-5-----5-----5---5-----5-----5---5-----5-----5---7-----7-----7---|
|---5-5---5-5---5---5-5---5-5---5---5-5---5-5---5---5-5---5-5---5-|
|-----------------------------------------------------------------|
|-----------------------------------------------------------------|
|-----------------------------------------------------------------|
|-----------------------------------------------------------------|

Chorus
|-5-----5-----5---5-----5-----5---5-----5-----5---5-----5-----5---|
|---5-5---5-5---5---5-5---5-5---5---5-5---5-5---5---5-5---5-5---5-|
|-----------------------------------------------------------------|
|-----------------------------------------------------------------|
|-----------------------------------------------------------------|
|-----------------------------------------------------------------|

|-5-----5-----5---5-----5-----5---7-----7-----7---7-----7-----7---|
|---5-5---5-5---5---5-5---5-5---5---5-5---5-5---5---5-5---5-5---5-|
|-----------------------------------------------------------------|
|-----------------------------------------------------------------|
|-----------------------------------------------------------------|
|-----------------------------------------------------------------|

|-5-----5-----5---5-----5-----5---|
|---5-5---5-5---5---5-5---5-5---5-|
|---------------------------------|
|---------------------------------|
|---------------------------------|
|---------------------------------|

Verse 2
|-5-----5-----5---5-----5-----5---5-----5-----5---5-----5-----5---|
|---5-5---5-5---5---5-5---5-5---5---5-5---5-5---5---5-5---5-5---5-|
|-----------------------------------------------------------------|
|-----------------------------------------------------------------|
|-----------------------------------------------------------------|
|-----------------------------------------------------------------|

|-5-----5-----5---5-----5-----5---5-----5-----5---7-----7-----7---|
|---5-5---5-5---5---5-5---5-5---5---5-5---5-5---5---5-5---5-5---5-|
|-----------------------------------------------------------------|
|-----------------------------------------------------------------|
|-----------------------------------------------------------------|
|-----------------------------------------------------------------|

|-5-----5-----5---5-----5-----5---5-----5-----5---5-----5-----5---|
|---5-5---5-5---5---5-5---5-5---5---5-5---5-5---5---5-5---5-5---5-|
|-----------------------------------------------------------------|
|-----------------------------------------------------------------|
|-----------------------------------------------------------------|
|-----------------------------------------------------------------|

|-5-----5-----5---5-----5-----5---5-----5-----5---7-----7-----7---|
|---5-5---5-5---5---5-5---5-5---5---5-5---5-5---5---5-5---5-5---5-|
|-----------------------------------------------------------------|
|-----------------------------------------------------------------|
|-----------------------------------------------------------------|
|-----------------------------------------------------------------|

|-5-----5-----5---5-----5-----5---5-----5-----5---7-----7-----7---|
|---5-5---5-5---5---5-5---5-5---5---5-5---5-5---5---5-5---5-5---5-|
|-----------------------------------------------------------------|
|-----------------------------------------------------------------|
|-----------------------------------------------------------------|
|-----------------------------------------------------------------|

|-5-----5-----5---5-----5-----5---5-----5-----5---7-----7-----7---|
|---5-5---5-5---5---5-5---5-5---5---5-5---5-5---5---5-5---5-5---5-|
|-----------------------------------------------------------------|
|-----------------------------------------------------------------|
|-----------------------------------------------------------------|
|-----------------------------------------------------------------|

Chorus
|-5-----5-----5---5-----5-----5---5-----5-----5---5-----5-----5---|
|---5-5---5-5---5---5-5---5-5---5---5-5---5-5---5---5-5---5-5---5-|
|-----------------------------------------------------------------|
|-----------------------------------------------------------------|
|-----------------------------------------------------------------|
|-----------------------------------------------------------------|

|-5-----5-----5---5-----5-----5---7-----7-----7---7-----7-----7---|
|---5-5---5-5---5---5-5---5-5---5---5-5---5-5---5---5-5---5-5---5-|
|-----------------------------------------------------------------|
|-----------------------------------------------------------------|
|-----------------------------------------------------------------|
|-----------------------------------------------------------------|

Outro
|-5-----5-----5---5-----5-----5---5-----5-----5---7-----7-----7---|
|---5-5---5-5---5---5-5---5-5---5---5-5---5-5---5---5-5---5-5---5-|
|-----------------------------------------------------------------|
|-----------------------------------------------------------------|
|-----------------------------------------------------------------|
|-----------------------------------------------------------------|

|-5-----5-----5---5-----5-----5---5-----5-----5---7-----7-----7---|
|---5-5---5-5---5---5-5---5-5---5---5-5---5-5---5---5-5---5-5---5-|
|-----------------------------------------------------------------|
|-----------------------------------------------------------------|
|-----------------------------------------------------------------|
|-----------------------------------------------------------------|

|-5-----5-----5---5-----5-----5---5-----5-----5---7-----7-----7---|
|---5-5---5-5---5---5-5---5-5---5---5-5---5-5---5---5-5---5-5---5-|
|-----------------------------------------------------------------|
|-----------------------------------------------------------------|
|-----------------------------------------------------------------|
|-----------------------------------------------------------------|

|-5-----5-----5---5-----5-----5---5-----5-----5---7-----7-----7---|
|---5-5---5-5---5---5-5---5-5---5---5-5---5-5---5---5-5---5-5---5-|
|-----------------------------------------------------------------|
|-----------------------------------------------------------------|
|-----------------------------------------------------------------|
|-----------------------------------------------------------------|

Ending
|-5-----5-----5---5-----5-----5---5-----5-----5---7-----7-----7---|
|---5-5---5-5---5---5-5---5-5---5---5-5---5-5---5---5-5---5-5---5-|
|-----------------------------------------------------------------|
|-----------------------------------------------------------------|
|-----------------------------------------------------------------|
|-----------------------------------------------------------------| 
Tap to rate this tab
 
# A B C D E F G H I J K L M N O P Q R S T U V W X Y Z