Song name
# A B C D E F G H I J K L M N O P Q R S T U V W X Y Z

Linkin Park - Fuse tab

Here it's a tab that I made for an old LP song, from the time they were called "Xero".
I'm not sure if this tab it's 100% because the quality of the guitar it's really shitty. 
sounds more like static noise than a guitar so it's pretty hard to hear every note 
Still, here we go.
Tunning Db : Db, Ab, Db, Gb, Bb, Eb.

[Distortion] Heavy Intro : Repeat X4 times

Eb|------------------------------------|
Bb|------------------------------------|
Gb|----9--9--7--7-7h10--10-------------|
Db|----9--9--7--7-7h10--10-------------|
Ab|----7--7--5--5-5h8---8--------------|
Db|------------------------------------|


Verse : No Guitar (there are only few FX sounds through the whole verse)


[Distortion] Pre-Chorus : Repeat X4 times

Eb|------------------------------------|
Bb|------------------------------------|
Gb|----9--9--7--7-7h10--10-------------|
Db|----9--9--7--7-7h10--10-------------|
Ab|----7--7--5--5-5h8---8--------------|
Db|------------------------------------|

[Distortion] Chorus : Repeat X4 times

Eb|------------------------------------|
Bb|------------------------------------|
Gb|------------------------------------|
Db|----2--2/9--9/12--12--4h5p0--4-2----|
Ab|----2--2/9--9/12--12--4h5p0--4-2----|
Db|----2--2/9--9/12--12--4h5p0--4-2----|


[Distortion] Verse 2 (There is a small part in the second verse, just before the pre-chorus)

Eb|------------------------------------|
Bb|------------------------------------|
Gb|------------------------------------|
Db|----2--2--9--9--9-12----------------|
Ab|----2--2--9--9--9-12----------------|
Db|----2--2--9--9--9-12----------------|


[Distortion] Pre-Chorus : Repeat X4 times

Eb|------------------------------------|
Bb|------------------------------------|
Gb|----9--9--7--7-7h10--10-------------|
Db|----9--9--7--7-7h10--10-------------|
Ab|----7--7--5--5-5h8---8--------------|
Db|------------------------------------|


[Distortion] Chorus : Repeat X4 times

Eb|------------------------------------|
Bb|------------------------------------|
Gb|------------------------------------|
Db|----2--2/9--9/12--12--4h5p0--4-2----|
Ab|----2--2/9--9/12--12--4h5p0--4-2----|
Db|----2--2/9--9/12--12--4h5p0--4-2----|


[Clean or Acoustic Guitar] Bridge 1 : Repeat X8 times (I'm not sure if Brad used an 
guitar set on the clean channel or an acoustic guitar, it sounds really good)

Eb|------------------------------------|
Bb|---------------3--------------------|
Gb|--------4p2p0-----------------------|
Db|----2-------------5p4---------------|
Ab|------------------------------------|
Db|------------------------------------|


[Distortion] Intro - Bridge 2 (All Palm Muted)

Eb|------------------------------------|
Bb|------------------------------------|
Gb|------------------------------------|
Db|----2-2--2--2-2---------------------|
Ab|----2-2--2--2-2---------------------|
Db|----2-2--2--2-2---------------------|


[Distortion] Bridge 2 : Repeat X8 times

Eb|------------------------------------|
Bb|------------------------------------|
Gb|------------------------------------|
Db|----2--2--9--9--9-12----------------|
Ab|----2--2--9--9--9-12----------------|
Db|----2--2--9--9--9-12----------------|


[Distortion] Final Chorus : Repeat X4 times

Eb|------------------------------------|
Bb|------------------------------------|
Gb|------------------------------------|
Db|----2--2/9--9/12--12--4h5p0--4-2--2-|
Ab|----2--2/9--9/12--12--4h5p0--4-2--2-|
Db|----2--2/9--9/12--12--4h5p0--4-2--2-| end...:)
Tap to rate this tab
 
# A B C D E F G H I J K L M N O P Q R S T U V W X Y Z