Song name
# A B C D E F G H I J K L M N O P Q R S T U V W X Y Z

Linkin Park - Reading My Eyes tab

Help us improve GuitareTab! Take a short survey!
Linkin park
Reading My Eyes

This is the underground song..pretty kool



Note: On the Xero tape, this was recorded in Drop D (DADGBE). This is tabbed from LP's
recent live version, and they tune down half a step nowadays.

The first breakdown is probably played on the 2nd and 3rd strings instead of how I've
tabbed it, but there isn't any good video to tell for sure, so I just tabbed it the easier
way, using the first 3 strings.

Verses (First chord is distorted, rest is clean)
Eb|----------------|
Bb|----------------|
Gb|------------2---|
Db|-10-----0-------|
Ab|-8--------------|
Db|-8---0----------|

Choruses (Palm mute all)
Eb|----------------------------|
Bb|----------------------------|
Gb|-----------------9/10-------|
Db|-0-7-12-0-7-10-0-x-x--0-7-3-|
Ab|-0-7-12-0-7-10-0-7/8--0-7-3-|
Db|-0-7-12-0-7-10-0------0-7-3-|

Breakdown (Light palm mute all)
Eb|---------------1-1-1-1-1---------|
Bb|-3-3-3-3-1-1-1-------------------|
Gb|-------------------------3-3-3-3-|
Db|---------------------------------|
Ab|---------------------------------|
Db|---------------------------------|

Bridge (The strumming on the first part is probably wrong but it's close)
Eb|--------------------------------------------------------- --------|
Bb|--------------------------------------------------------- --------|
Gb|--------------------------------------------------------- --------|
Db|-0-1-1-0-1-0-1-0-0-1-1-0-1-0-1-0-3-3-3-3-3-3-3-3-5-5-5-5- 5-5-5-5-|
Ab|-0-1-1-0-1-0-1-0-0-1-1-0-1-0-1-0-3-3-3-3-3-3-3-3-3-3-3-3- 3-3-3-3-|
Db|-0-1-1-0-1-0-1-0-0-1-1-0-1-0-1-0-3-3-3-3-3-3-3-3-3-3-3-3- 3-3-3-3-|
                                    PM . . . . . . . . . . . ........

Heavy Breakdown: Play the chorus riff again but with some weird flanger-like effect the
first 2 times.

End:
Eb|----------|
Bb|----------|
Gb|----------|
Db|-12---12\-|
Ab|-12---12\-|
Db|-12---12\-|

well thats it...enjoy!

any corrections lemme know,,,,....

plz leave a comment or a rating thx ;)

XD
Related for Reading My Eyes tab