Song name
# A B C D E F G H I J K L M N O P Q R S T U V W X Y Z

Linkin Park - Faint Live tab

----------------------------------NOTE--------------------------------------

For most of the song before the extended bit i have used 'Faint Tab(ver 2)' tabbed by 
Thats because its correct, and other versions of it dont sound to good.
Email me at mikey0108@googlemail.com if you have any questions.

----------------------------------------------------------------------------

Tuning is Drop D 1/2 step down.
I have used the solo from when linkin park played sheffield
So the solo might not sound fully correct

if your stuck with the symbles there at the bottom of the page =]

anyway enjoy =D
----------------------------------NOTE--------------------------------------

Intro
20--22----------------------------------------|
----------20/22---20\15--20\15--20\15--20\15--|
----------------------------------------------|
----------------------------------------------|   (actually played by joe)
----------------------------------------------|
----------------------------------------------| x2

chorus
----------|----------------------------------------|
----------|----------------------------------------|
--7-7-7-7-|-7-7-7-14-14\12-12-12-12-12-14-14\10-10-|
--x-x-x-x-|-x-x-x--x--x--x--x--x--x--x--x--x-x--x--|
--5-5-5-5-|-5-5-5-12-12\10-10-10-10-10-12-12\8--8--|
----------|----------------------------------------| x4


verse 1, this can either be the intro, or this:
---------------------------------------|
---------------------------------------|
---------------------------------------|
0-0-------0-0-------0-0-----8-8----3-3-|
0-0-------0-0-------0-0-----8-8----3-3-|
0-0-------0-0-------0-0-----8-8----3-3-|


Chorus!
----------|----------------------------------------|
----------|----------------------------------------|
--7-7-7-7-|-7-7-7-14-14\12-12-12-12-12-14-14\10-10-|
--x-x-x-x-|-x-x-x--x--x--x--x--x--x--x--x--x-x--x--|
--5-5-5-5-|-5-5-5-12-12\10-10-10-10-10-12-12\8--8--|
----------|----------------------------------------| x4

Verse 2
(Again either intro or this)
---------------------------------------|
---------------------------------------|
---------------------------------------|
0-0-------0-0-------0-0-----8-8----3-3-|
0-0-------0-0-------0-0-----8-8----3-3-|
0-0-------0-0-------0-0-----8-8----3-3-|

Chorus!
-------------|----------------------------------------|
-------------|----------------------------------------|
-----7-7-7-7-|-7-7-7-14-14\12-12-12-12-12-14-14\10-10-|
-----x-x-x-x-|-x-x-x--x--x--x--x--x--x--x--x--x-x--x--|
-----5-5-5-5-|-5-5-5-12-12\10-10-10-10-10-12-12\8--8--|
-------------|----------------------------------------| x4


Bridge!
---------------------------------------|
---------------------------------------|
---------------------------------------|
0--7--3--2--3--2-----0--7--3--2--3--2--|
0--7--3--2--3--2-----0--7--3--2--3--2--|
0--7--3--2--3--2-----0--7--3--2--3--2--| x4

intro again (if you choose to play this instead of the other verse)
------22-------------------------------------|
----------20/22---20\15--20\15--20\15--20\15-|
---------------------------------------------|
---------------------------------------------|
---------------------------------------------|
---------------------------------------------|

Chorus
----------------------------------------|
----------------------------------------|
-7-7-7-14-14\12-12-12-12-12-14-14\10-10-|
-x-x-x--x--x--x--x--x--x--x--x--x-x--x--|
-5-5-5-12-12\10-10-10-10-10-12-12\8--8--|
----------------------------------------| x8

Then the extended bit is like this:
---------------------------------------|
---------------------------------------|
---------------------------------------|
0--7--3--2--3--2~~~-0~~-7--3--2--3--2--|
0--7--3--2--3--2~~~-0~~-7--3--2--3--2--|
0--7--3--2--3--2~~~-0~~-7--3--2--3--2--| x4

then the solo is tremolo picking (listen too it too get it right)
--------------------------------------------------------------------------|
--------------------------------------------------------------------------|
--------------------------------------------------------------------------|
11-12-11-12-11-12-14-11-12-14-12-14-15-12-14-15-15-17-18-15-17-18-15-17-18|
--------------------------------------------------------------------------|
--------------------------------------------------------------------------|
Solo carried on
--------------------------------------------------------------------------|
--------------------------------------------------------------------------|
--------------------------------------------------------------------------|
19-19-19-17-17-17-15-15-15-17-19-20-17-19-20-19-20-22-19-20-22-19-19-19-19|
--------------------------------------------------------------------------|
--------------------------------------------------------------------------|

Second part of the solo
---------22------20--------------------|
---22------20--22--22-20--21--20-------|
19----19-------------------------19^--0|
---------------------------------------|
---------------------------------------|
---------------------------------------|

part after solo
-----------------------------------------|
-----------------------------------------|
-----------------------------------------|
1-1-1-1-1-1-1-1-1-1-1-1-1-1-1-1-1-1-1-1-1|  (dont let any ring)
1-1-1-1-1-1-1-1-1-1-1-1-1-1-1-1-1-1-1-1-1|
1-1-1-1-1-1-1-1-1-1-1-1-1-1-1-1-1-1-1-1-1|

------------------------|
------------------------|
------------------------|
0--7--3--2--3--0~~~~~~~~|
0--7--3--2--3--0~~~~~~~~|
0--7--3--2--3--0~~~~~~~~|

0-0-0-0---0-0-0-0-0-|
0-0-0-0---0-0-0-0-0-|
0-0-0-0---0-0-0-0-0-|
------------------0-|
------------------0-|
------------------0-|

^ = bend
~ = let the chord ring
/ = slide up
\ = slide down
. = palm mute
Tap to rate this tab
# A B C D E F G H I J K L M N O P Q R S T U V W X Y Z